Metallica - Turn The Page tab


Metallica
Turn The Page - guitar tab
            ALBUM GARAGE INC. 
         ORIGINALLY BY BOB SEGER 

 
 
h = HAMMER-ON 
p = PULL OF 
/ = SLIDE 
b = BEND 
r = RELEASE BEND 
x = DEAD NOTE 
 
Tuned 1/2 step down 
 
Guitar 1 (with Tremolo) JAMES 
 
D#||------------------|--0-------0--0---0--------|------------0--0--0-----| A#||------------------|--0-------0--0-0-0--------|------------0--0--0-----| F#||------------------|--0-------0----0----------|---------------0--0-----| C#||------------------|--2-------2------------2--|------------------------| G#||------------------|--2-------2---------------|----------2-------------| D#||------------------|--0-------0--------0h3----|--0----0----------------|
--0-------0--0--0--------|------------0--0-------0--| --0-------0--0--0--------|------------0--0----0--0--| --0-------0--0--0--------|----------0-0--0--0-------| --2----------------------|--------------------------| --2-------------------2--|-------2------------------| --0---------------0h3----|--0----0------------------|
--0---------------0--------|---------------0--------| --0----0--0-0---0-0--------|----------0----0--------| --0----0----0--------------|----------0-------------| --2---------------------2--|---------------------2--| --2------------------------|------------------------| --0-----------------0h3----|--0--------------0h3----|
------------0------0---------|-------0-----2--2---2--------| --------3------3---3---3-----|---------3---3--3-3-3-3------| -----2--2------2-2---2-------|-----2----------------2------| --0----------------------0-2-|--0----------------------0h2-| -----------------------------|-----------------------------| -----------------------------|-----------------------------|
--------------------------|---------------------------| ------------3--2------2-2-|-------2----2-----2--------| ----------2----2--2---2-2-|-------2--2-2---2-2--------| -------2------------------|------------------------2--| --0-----------------------|--0------------------------| --------------------------|--------------------0h3----|
-----------0--0-----0-----|-----------0--0-----------|------------------| ---------0-0--0---0-------|-----------0--0--0------0-|------------------| ---------0-0--------------|-----------0--0--0-0--0---|------------------| --------------------------|-------------------2------|------------------| --------------------------|--------------------------|------------------| --0-------------------0h3-|--0----0------------------|------------------| DISTORTION
|---------------------------|------------0-----0---------| |-----------0---0-0---------|------------0---0-0---------| |-----------0---0-0---------|----------------0-----------| |--2--------2---2-2-----2---|-------2----------------2p0-| |--2------2-2---2-2---------|-------2--2-----------------| |--0------0-0---0-0-0h3---0-|--0----0--0---------0h3-----|
-------2---2-2-2--2-------|-------2--2-2-2-2---------| -------3---3-3-3--3-3--3--|--3----3--3-3-3-3---3-----| -------2---2-2-2--2-2-----|--2----2--2-2-2-2---2-----| --0----0---0-0-0--0-0-----|----------0-0-0-0---0--0--| --0-----------------------|-----------------------0--| --------------------------|--------------------------|
----------------------------|------------------------------| --------2---3p2---------2h3-|--------------2h3-2--2-2-2----| --2--2--2---2---2-2--2------|--2--2-2-2--2-2---2--2-2-2----| --2--2--2---------2--2------|--2--2-2-2--2----------2-2----| --0------------------0------|--0--0-0-0--0-----------------| ----------------------------|---------------------------3b-|
-----------0-0--0---------|---------------0--0-0--0-0-| -------0---0-0--0---------|---------------0--0-0--0-0-| -------0---0-0--0---------|---------------0--0-0--0-0-| -------2---2-2--2---------|--------------------2--2-2-| -------2---------------2--|-------2---2-2-------------| --0----0-----------0h3----|--0----0---0-0-------------|
--2----2-------------------|-----0----------------------| --3----3-----3--3----3-3---|-----0----------------------| --2----2-----2--2----2-2---|-----0----------------------| --0----0-----0--0--0-0-0---|--2--2--2----2----2--2------| -----------0-0--0--------0-|--2--2--2----2----2--2------| ---------------------------|--0--0--0--0-0--0-0--0--0h3-|
--------------------2--2---|----------------------------| --3----3-----3---3--3--3-0-|--0----0--0-0-0---0--0---0--| --2----2-----2---2--2--2---|--0----0--0-0-0---0--0---0--| --0----0-----0---0--0--0---|--2----2--2-2-2---2--2---2--| -----------0---0----0--0---|--2----2--2-2-2---2--2---2--| ---------------------------|--0----0--0-0-0-0-0--0-0-0--|
---------------------------|------------------------|--------------------------| --3----3--3---3--3----3----|-------2---3--2---------|------------------------0-| --2----2--2---2--2----2----|--2----2---2--2---2--2--|--5----5--5/6-7----7--7-0-| --0----0--0---0--0--0-0----|--2----2------2---2--2--|--5----5--5/6-7----7--7---| --0----0--0-0-0--0-------0-|--0----0------0---0--0--|--3----3--3/4-5----5--5---| ---------------------------|------------------------|--------------------------|
--------0---0-0-0-0---------|------------0-0------------|-------0------------| -----0--0---0-0-0-0---------|------------0-0------------|-------0------------| -----0------0-0-0-0---------|------------0-0------------|-------0------------| --2--2-------------------2--|---------------------2-----|--------------------| --2-------------------------|---------------------------|--2-----------------| --0------------------0h3----|--0--0--0--------0h3----3b-|--0-----------------|
------------------0----|---------------------|------------------------| ------------------0----|---------------------|------------------------| ------------------0----|--7------------------|--7----7--------7---7---| -----------------------|--7------------------|--7----7--------7---7---| --2----2---2-2---------|--5--------------x-x-|--5----5--------5p0-5p0-| --0----0---0-0---------|-----------------x-x-|------------------------|
-------------------------|-------------------------|--------0---------------| ------------------3p2----|-----------------3p2-2---|--------0---------------| --2----2-----------------|--2--------------------2-|--------0---------------| --2----2--------------2--|--2----------------------|--------2------------2--| --0----0------0-0-----0--|--0----------0-0---------|------------------------| -------------------------|-------------------------|--0--0-----------0h3----|
-------------------------|-------0------------|------------------0----| ---------------------0---|-------0------------|------------------0----| ---------------------0---|-------0------------|------------------0----| -----------------2---0---|--------------------|-----------------------| -------------------------|--2-----------------|--2----2---2-2---------| ----0----0-0-0h3---------|--0-----------------|--0----0---0-0---------|
---------------------|------------------------|-------------------------| ---------------------|------------------------|------------------3p2----| --7------------------|--7----7--------7---7---|--2----2-----------------| --7------------------|--7----7--------7---7---|--2----2--------------2--| --5--------------x-x-|--5----5--------5p0-5p0-|--0----0------0-0-----0--| -----------------x-x-|------------------------|-------------------------|
------------------------|--------0---------------|-----------------------------| --------------2h3-3-2---|--------0---------------|-----------------------------| --2---------------------|--------0---------------|-----------------0-0---------| --2---------2-----------|-----2--2------------2--|--------2--------2-2-2-2-2-2-| --0---------------------|------------------------|---------------------2-2-2-2-| ------------------------|--0--------------0h3----|---0h-3------0h3-----0-0-0-0-|
--2----2-------------------|-----0----------------------| --3----3-----3--3----3-3---|-----0----------------------| --2----2-----2--2----2-2---|-----0----------------------| --0----0-----0--0--0-0-0---|--2--2--2----2----2--2------| -----------0-0--0--------0-|--2--2--2----2----2--2------| ---------------------------|--0--0--0--0-0--0-0--0--0h3-|
--------------------2--2---|----------------------------| --3----3-----3---3--3--3-0-|--0----0--0-0-0---0--0---0--| --2----2-----2---2--2--2---|--0----0--0-0-0---0--0---0--| --0----0-----0---0--0--0---|--2----2--2-2-2---2--2---2--| -----------0---0----0--0---|--2----2--2-2-2---2--2---2--| ---------------------------|--0----0--0-0-0-0-0--0-0-0--|
---------------------------|------------------------| --3----3--3---3--3----3----|-------2---3--2---------| --2----2--2---2--2----2----|--2----2---2--2---2--2--| --0----0--0---0--0--0-0----|--2----2------2---2--2--| --0----0--0-0-0--0-------0-|--0----0------0---0--0--| ---------------------------|------------------------|
---------------------------|-----------------------| -------------------7-7--7/-|-----------------------| --5---5-5------7---7-7--7/-|-----------------------| --5---5-5----6-7-----7--7/-|-------2------------2--| --3---3-3--0-4-5-----5--5/-|--2----2---------------| ---------------5-----5--5/-|--0----0--------0h3----|
-----------------------------|-------0-----------------| -----------------------------|-------0-----------------| -----------------------0-----|-------0-----------------| --------2---2-----2--2-2-----|--2----2---2---2--2--2-2-| -------------------------2-2-|--2----2---2---2--2--2-2-| ----0h3-------0h3--------0-0-|--0----0---0---0--0--0-0-|
----------------------------|---------------------------| ----------------------------|---------------------------| --------------------------x-|--7--7--7--7-7-7------7----| --2---2-2--2-2--2-2--2--2-x-|--7--7--7--7-7-7------7----| --2---2-2--2-2--2-2--2--2-x-|--5--5--5--5-5-5--0---5--0-| --0---0-0--0-0--0-0--0--0-x-|----------------------5----|
-----------------------------|----------------------------| --7--7-7---------------------|--2--2--2--2--2-2--2-2-2--2-| --7--7-7-7--7-7-7--7--7-7-7--|--2--2--2--2--2-2--2-2-2--2-| --7--7-7-7--7-7-7--7--7-7-7--|--2--2--2--2--2-2--2-2-2--2-| --5--5-5-5--5-5-5--5--5-5-5--|--0--0--0--0--0-0--0-0-0--0-| ----------------5--5--5-5----|----------------------------|
------------------------------|-------0------------------| --2--2--2-2-2--2-2-2--2-2-----|-------0------------------| --2--2--2-2-2--2-2-2--2-2-----|-------0--------------1-1-| --2--2--2-2-2--2-2-2--2-2-----|--2----2-----2-2------1-1-| --0--0--0-0-0--0-0-0--0-0-----|--2----2-----2-2------1-1-| --------------------------3p0-|--0----0-----0-0--3p0-0-0-|
-------------------------|-------------------|------------------| -------------------------|-------------------|------------------| -----------1---1-1--1----|-------------------|------------------| --2----2-2-1---1-1--1----|--2----------------|------------------| --2----2-2-1---1-1--1----|--2----------------|------------------| --0----0-0-0---0-0--0----|--0----------------|------------------|
------------------|------------------|------------------|------------------| ------------------|------------------|------------------|------------------| ------------------|------------------|------------------|------------------| ------------------|------------------|------------------|------------------| ------------------|------------------|------------------|------------------| ------------------|------------------|------------------|------------------|
------------------|--------------------|---------------------------| ------------------|--------------------|---------------------------| ------------------|--------------------|---------------------------| ------------------|---------------12b--|-r12---------12/7-----7--7/| ------------------|----------------9b--|-r9----------9/-5h7-7-7--7/| ------------------|--------------------|---------------------------|
-------------------------|---------------------------| -------------------------|---------------------------| -------------------------|---------------------------| --2--------2--------12b--|-r2-----------------7-7-7/| --2------------------9b--|-r9----------12/7----5h7-7/| --0----3p0-----0---------|-------------9/-5h7--------|
-----------------------------|----------------------------| -----------------------------|----------------------------| -----------------------------|----------------------------| --2---------2-----------12b--|-r12--------12/--7----7---7/| --2----------------------9b--|-r9---------9/-0-5h7--5h7-7/| --0---0-3p0-----0-3p0-0------|----------------------------|
-----------------------------|---------------------------------| -----------------------------|---------------------------------| -----------------------------|---------------------------------| --2--------2-------------12--|----------10h12-12----12----12/9-| --2------------2---------9r--|--10------------9-----9h-10-9/-7-| --0----3p0-----0-0-0-0-0-----|--8------------------------------|
----------------------------|---------------------------| ----------------------------|---------------------------| ----------------------------|---------------------------| --9----9--9-9-----------12--|--12---------12/7-----7--7/| --7----7--7-7---x-x-x-x-9b--|--9----------9/-5h7-7-7--7/| ----------------x-x-x-x-----|---------------------------|
-------------------------|---------------------------| -------------------------|---------------------------| -------------------------|---------------------------| --2--------2---------12--|--12-----------------7-7-7/| --2------------------9b--|--9----------12/7----5h7-7/| --0----3p0-----0---------|-------------9/-5h7--------|
-----------------------------|----------------------------| -----------------------------|----------------------------| -----------------------------|----------------------------| --2---------2------------12--|--12--------12/--7----7---7/| --2----------------------9b--|--9---------9/-0-5h7--5h7-7/| --0---0-3p0-----0-3p0-0------|----------------------------|
-----------------------------|-------------------------------------| -----------------------------|-------------------------------------| -----------------------------|-------------------------------------| --2--------2-------------12--|--------------10h12-12----12----12/9-| --2------------2---------9r--|--10----10-10-------9-----9h-10-9/-7-| --0----3p0-----0-0-0-0-0-----|--8-----8--8-------------------------|
--------------------------------|--2----2-------------------| --------------------------------|--3----3-----3--3----3-3---| -----------9-----9-----9-9--9-9-|--2----2-----2--2----2-2---| --7h9--7h9---7h9---7h9---9--9-9-|--0----0-----0--0--0-0-0---| --7----7-----7-----7-----7--7-7-|-----------0-0--0--------0-| --------------------------------|---------------------------|
-----0----------------------|--------------------2--2---| -----0----------------------|--3----3-----3---3--3--3-0-| -----0----------------------|--2----2-----2---2--2--2---| --2--2--2----2----2--2------|--0----0-----0---0--0--0---| --2--2--2----2----2--2------|-----------0---0----0--0---| --0--0--0--0-0--0-0--0--0h3-|---------------------------|
----------------------------|---------------------------| --0----0--0-0-0---0--0---0--|--3----3--3---3--3----3----| --0----0--0-0-0---0--0---0--|--2----2--2---2--2----2----| --2----2--2-2-2---2--2---2--|--0----0--0---0--0--0-0----| --2----2--2-2-2---2--2---2--|--0----0--0-0-0--0-------0-| --0----0--0-0-0-0-0--0-0-0--|---------------------------|
------------------------|--------------------------| -------2---3--2---------|------------------------0-| --2----2---2--2---2--2--|--5----5--5/6-7----7--7-0-| --2----2------2---2--2--|--5----5--5/6-7----7--7---| --0----0------0---0--0--|--3----3--3/4-5----5--5---| ------------------------|--------------------------|
-----------------------------|------------------------------| -----------------------------|------------------------------| -----------------------------|--5--5-5-5--5/6-7--7-7-7--7---| --2--2--2--2-2----2--2-2-2-2-|--5--5-5-5--5/6-7--7-7-7--7---| --2--2--2--2-2----2--2-2-2-2-|--3--3-3-3--3/4-5--5-5-5--5---| --0--0--0--0-0--0-0--0-0-0-0-|----------------------------0-|
------------------------------|----------------------------| ------------------------------|----------------------------| ------------------------------|--5--5--5--5-5-5-5-5--5--5--| --2-2-2-2-2--2-2--2-2--2--2-2-|--5--5--5--5-5-5-5-5--5--5--| --2-2-2-2-2--2-2--2-2--2--2-2-|--3--3--3--3-3-3-3-3--3--3--| --0-0-0-0-0--0-0--0-0--0--0-0-|----------------------------|
--------------------------|-------0-----0------------| --------------------------|-------0-----0------------| --7--7--7--7--7--7--7--7--|-------0-----0-----1------| --7--7--7--7--7--7--7--7--|--2----2---2-2-----1------| --5--5--5--5--5--5--5--5--|--2----2---2-2-----1------| --------------------------|--0----0---0-0--0--0--0-0-|
--------------------------------|---------------------------| ------0-------------------------|---------------------------| ------0-2-----------------------|---------------------------| --------2--2-2-2------------12--|--12---------12/7-----7--7/| ----------------------------9b--|--9----------9/-5h7-7-7--7/| --3p0------------3p0-0-0-0------|---------------------------|
-------------------------|---------------------------| -------------------------|---------------------------| -------------------------|---------------------------| --2--------2---------12--|--12-----------------7-7-7/| --2------------------9b--|--9----------12/7----5h7-7/| --0----3p0-----0---------|-------------9/-5h7--------|
-----------------------------|----------------------------| -----------------------------|----------------------------| -----------------------------|----------------------------| --2---------2------------12--|--12--------12/--7----7---7/| --2----------------------9b--|--9---------9/-0-5h7--5h7-7/| --0---0-3p0-----0-3p0-0------|----------------------------|
-----------------------------|------------------------------------| -----------------------------|------------------------------------| -----------------------------|------------------------------------| --2--------2-------------12--|--10----10---10------------------12-| --2------------2---------9r--|--10----10---10-10--10--10-10-10-9--| --0----3p0-----0-0-0-0-0-----|--8-----8----8--8---8---8-----8-----|
----------------------------------|-------------------|------------------|| ----------------------------------|-------------------|------------------|| ----------------------------------|--9----------------|------------------|| --12----12---0-12--12--12----12/9-|--9----------------|------------------|| --9-----9------9---9---9/-10-9/-7-|--7----------------|------------------|| ----------------------------------|-------------------|------------------||
Guitar 2 Kirk distortion
D#||------------------|------------------|--------------10/-15/-| A#||------------------|------------------|----------------------| F#||------------------|------------------|----------------------| C#||------------------|------------------|----------------------| G#||------------------|------------------|----------------------| D#||------------------|------------------|----------------------|
--14-----14/10--------10/-|---------------------------|-------------------| --------------------------|--12-----------------------|-------------------| --------------------------|----------12/-11---11/7/---|--9----------------| --------------------------|---------------------------|--9----------------| --------------------------|---------------------------|-------------------| --------------------------|---------------------------|-------------------|
---------------------|-------------------|-------------------| ---------------------|-------------------|-------------------| --------------7/9/---|--7----------------|-------------------| ---------------------|-------------------|--------------5/---| ---------------------|-------------------|-------------------| ---------------------|-------------------|-------------------|
-------------------|------------------------|------------------------| -------------------|------------------------|------------------------| -------------------|--------------11/12-12/-|--11-----11/7--------7/-| --7----------------|------------------------|---------------------7/-| -------------------|------------------------|------------------------| -------------------|------------------------|------------------------|
--------------------|-------------------------|------------------------------| --------------------|-------------------------|------------------------------| --9------------9/---|--9----9--9-9---9--9--9--|--9--9-9-9--9-9--9-9--9-9-9-7-| --9------------9/---|--9----9--9-9---9--9--9--|--9--9-9-9--9-9--9-9--9-9-9-7-| --------------------|--7----7--7-7---7--7--7--|--7--7-7-7--7-7--7-7--7-7-7-5-| --------------------|--0----0--0-0---0--0--0--|--0--0-0-0--0-0--0-0--0-0-0---|
---------------------------|-------------------------------| ---------------------------|-------------------------------| --7----7----7-x-7-7--7--7--|--7--7-7-7----7-x-7-7--7-7-7---| --7----7----7-x-7-7--7--7--|--7--7-7-7----7-x-7-7--7-7-7---| --5----5--0-5-x-5-5--5--5--|--5--5-5-5----5-x-5-5--5-5-5-0-| --------------x------------|------------0---x--------------|
---------------------|----------------------------|------------------------| ---------------------|----------------------------|------------------------| --2--------------2-2-|--2--2--2--2-2--2-2--2--12/-|--11-----11/7-----------| --2--------------2-2-|--2--2--2--2-2--2-2--2------|---------------------7/-| --0--------------0-0-|--0--0--0--0-0--0-0--0------|------------------------| ---------------------|----------------------------|------------------------|
--------------------|----------------------------|----------------------------| --------------------|----------------------------|----------------------------| --9--------9/-------|--7----7--x-7-x-7-7--7--7-x-|-----------x------------x-x-| --9-----------------|--7----7--x-7-x-7-7--7--7-x-|--2-----2--x-2--2-2--2--x-x-| --------------------|--5----5--x-5-x-5-5--5--5-x-|--2-----2--x-2--2-2--2--x-x-| --------------------|----------x---x-----------x-|--0--0--0--x-0--0-0--0--x-x-|
----------------------------|----------------------------| ----------------------------|----------------------------| --7----7--x-7-x-7-7--7--7-x-|-----------x------------7-7-| --7----7--x-7-x-7-7--7--7-x-|--2--2--2--x-2--2-2--2--7-7-| --5----5--x-5-x-5-5--5--5-x-|--2--2--2--x-2--2-2--2--5-5-| ----------x---x-----------x-|--0--0--0--x-0--0-0--0------|
---------------------------|----------------------------| ---------------------------|---------3------------------| --7----7--x-7--7-7--7-7--7-|---------2------------------| --7----7--x-7--7-7--7-7--7-|--7--7-7-2-7--7--7-7--7--7--| --5----5--x-5--5-5--5-5--5-|--7--7-7-0-7--7--7-7--7--7--| ----------x----------------|--5--5-5---5--5--5-5--5--5--|
-------------------------|-----------15/-14-----14/10--| -------------------------|-----------------------------| --5----5--5/6/7----7--7/-|--------12/------------------| --5----5--5/6/7----7--7/-|-----------------------------| --3----3--3/4/5----5--5/-|-----------------------------| -------------------------|--0--------------------------|
------------------------|-------------------------| ----10/-----12----12/---|-------------------------| ------------------------|--9----9--9-9---9--9--9--| ------------------------|--9----9--9-9---9--9--9--| ------------------------|--7----7--7-7---7--7--7--| ------------------------|--0----0--0-0---0--0--0--|
------------------------------|---------------------------| ------------------------------|---------------------------| --9--9-9-9--9-9--9-9--9-9-9-7-|--7----7----7-x-7-7--7--7--| --9--9-9-9--9-9--9-9--9-9-9-7-|--7----7----7-x-7-7--7--7--| --7--7-7-7--7-7--7-7--7-7-7-5-|--5----5--0-5-x-5-5--5--5--| --0--0-0-0--0-0--0-0--0-0-0---|--------------x------------|
-------------------------------|---------------------| -------------------------------|---------------------| --7--7-7-7----7-x-7-7--7-7-7---|--2--------------2-2-| --7--7-7-7----7-x-7-7--7-7-7---|--2--------------2-2-| --5--5-5-5----5-x-5-5--5-5-5-0-|--0--------------0-0-| ------------0---x--------------|---------------------|
-----------------------15/-|--14----14/--15-14--14/-10---10/| ---------------------------|--------------------------------| --2----2--0-2--0-2--2------|--------------------------------| --2----2--0-2--0-2--2------|--------------------------------| --0----0----0----0--0------|--------------------------------| ---------------------------|--------------------------------|
--12--------12----12/---|-------------------------| ------------------------|-------------------------| ------------------------|--9----9--9-9---9--9--9--| ------------------------|--9----9--9-9---9--9--9--| ------------------------|--7----7--7-7---7--7--7--| ------------------------|--0----0--0-0---0--0--0--|
------------------------------|---------------------------| ------------------------------|---------------------------| --9--9-9-9--9-9--9-9--9-9-9-7-|--7----7----7-x-7-7--7--7--| --9--9-9-9--9-9--9-9--9-9-9-7-|--7----7----7-x-7-7--7--7--| --7--7-7-7--7-7--7-7--7-7-7-5-|--5----5--0-5-x-5-5--5--5--| --0--0-0-0--0-0--0-0--0-0-0---|--------------x------------|
-------------------------------|---------------------| -------------------------------|---------------------| --7--7-7-7----7-x-7-7--7-7-7---|--2--------------2-2-| --7--7-7-7----7-x-7-7--7-7-7---|--2--------------2-2-| --5--5-5-5----5-x-5-5--5-5-5-0-|--0--------------0-0-| ------------0---x--------------|---------------------|
--------------------------|---------------------------| --------2---2----------8/-|--7---7/8--8--8----10--10/-| --2-----2---2--2-2--2-----|---------------------------| --2--2--2---2--2-2--2-----|---------------------------| --0-----0---0--0-0--0-----|---------------------------| --------------------------|---------------------------|
-------------------------|---------------------------| --12---------------------|---------------------------| -------------------------|--7----7------7-7--7-7-7-7-| -------------------------|--7----7------7-7--7-7-7-7-| -------------------------|--5----5------5-5--5-5-5-5-| ------------12-----12/-0-|-----------5---------------|
-----------------0------------|---------------------12/10---12-| -----------------0-----0------|---------------------------1----| ---------0----0--0-0---0------|--7--7--7----7--7-7-------------| ---------2----2--2-2-2-2------|--7--7--7----7--7-7-------------| --2--x-2-2--x-2----2-2-2------|--5--5--5----5--5-5-------------| --0------0----0----0-0-0--0-0-|-----------5--------------------|
----------12--12/-------|-----------------------------| ------------------------|-----------------------------| --------------------0---|--7-----7----7--7-7-7-7--7-7-| ------------------------|--7--7--7--7-7--7-7-7-7--7-7-| ----------------------0-|--5-----5--5-5--5-5-5-5--5-5-| ------------------------|-----------------------------|
---------------------------|-------------------------| ---------------------------|-------------------------| --2----2----2--2-2--2--0-0-|--5----5--5/-7----7--0-0-| --2----2--x-2--2-2--2--0-0-|-------------------------| --0----0----0--0-0--0------|-------------------------| ---------------------------|-------------------------|
-----12-12----12/10----12-12/-12-12----12-12/-| --12-------12-------12--------12-12-12--------| ----------------------------------------------| ----------------------------------------------| ----------------------------------------------| ----------------------------------------------|
--15--15/-17/--12-12/10----12--12/--|---------------------------| ------------------------12-12--12/--|---------------------------| ------------------------------------|---------------------------| ------------------------------------|--2--2--2---2--2-2--2--2-2-| ------------------------------------|--2--2--2---2--2-2--2--2-2-| ------------------------------------|--0--0--0---0--0-0--0--0-0-|
----------------------------|---------------------------| ----------------------------|---------------------------| ----------x---------------7-|--7---7-7------------7---7-| --2----2--x-2--2-2--2-2-2-7-|--7---7-7--x-x--x-x--7---7-| --2----2--x-2--2-2--2-2-2-5-|--5---5-5------------5-----| --0----0--x-0--0-0--0-0-0---|---------------------5-----|
-----------12---12/-------|-------------------|-------------------14/15/-| -----------12---12/-------|-------------------|--------------------------| --7--7-7-7/---------------|--2----------------|--0-2-----------2/--------| --7--7-7-7/---------------|-------------------|--------------------------| --5--5-5-5/---------------|-------------------|--------------------------| --------------------------|-------------------|--------------------------|
--14----14/-10------------|----------------------|------------------| ----------------------10/-|--12------------12/---|------------------| --------------------------|----------------------|------------------| --------------------------|----------------------|------------------| --------------------------|----------------------|------------------| --------------------------|----------------------|------------------|
------------------|------------------|------------------|------------------| ------------------|------------------|------------------|------------------| ------------------|------------------|------------------|------------------| ------------------|------------------|------------------|------------------| ------------------|------------------|------------------|------------------| ------------------|------------------|------------------|------------------|
------------------|------------------|------------------| ------------------|------------------|------------------| ------------------|------------------|------------------| ------------------|------------------|------------------| ------------------|------------------|------------------| ------------------|------------------|------------------|
----------------------------|--------------------------| ----------------------------|--------------------------| --7----7--7-7--7-7--7-7-7---|----------x---------------| --7----7--7-7--7-7--7-7-7---|--2----2--x-2--2-2--2--2/-| --5----5--5-5--5-5--5-5-5---|--2----2--x-2--2-2--2--2/-| --------------------------0-|--0----0--x-0--0-0--0--0--|
----------------------------|--------------------------| ----------------------------|--------------------------| --7----7--7-7--7-7--7-7-7---|----------x---------------| --7----7--7-7--7-7--7-7-7---|--2----2--x-2--2-2--2--2/-| --5----5--5-5--5-5--5-5-5---|--2----2--x-2--2-2--2--2/-| --------------------------0-|--0----0--x-0--0-0--0--0--|
----------------------------|---------------------------| ----------------------------|---------------------------| --7----7--7-7--7-7--7-7-7---|----------x------------x-x-| --7----7--7-7--7-7--7-7-7---|--2----2--x-2--2-2--2--x-x-| --5----5--5-5--5-5--5-5-5---|--2----2--x-2--2-2--2--x-x-| --------------------------0-|--0----0--x-0--0-0--0--x-x-|
-----------------------------|-----------------------------| -----------------------------|-----------------------------| --5--5-5-5--5-x-7--7-7-7--7--|--------9----9--9-9--9-9-9/7-| --5--5-5-5--5-x-7--7-7-7--7--|--2--2--9----9--9-9--9-9-9/7-| --3--3-3-3--3-x-5--5-5-5--5--|--2--2--7----7--7-7--7-7-7/5-| --------------x--------------|--0--0-----0-----------------|
----------------------------|--------------------------| ----------------------------|--------------------------| --7----7--7-7--7-7--7-7-7---|----------x---------------| --7----7--7-7--7-7--7-7-7---|--2----2--x-2--2-2--2--2/-| --5----5--5-5--5-5--5-5-5---|--2----2--x-2--2-2--2--2/-| --------------------------0-|--0----0--x-0--0-0--0--0--|
----------------------------|--------------------------| ----------------------------|--------------------------| --7----7--7-7--7-7--7-7-7---|----------x---------------| --7----7--7-7--7-7--7-7-7---|--2----2--x-2--2-2--2--2/-| --5----5--5-5--5-5--5-5-5---|--2----2--x-2--2-2--2--2/-| --------------------------0-|--0----0--x-0--0-0--0--0--|
----------------------------|---------------------------| ----------------------------|---------------------------| --7----7--7-7--7-7--7-7-7---|----------x------------x-x-| --7----7--7-7--7-7--7-7-7---|--2----2--x-2--2-2--2--x-x-| --5----5--5-5--5-5--5-5-5---|--2----2--x-2--2-2--2--x-x-| --------------------------0-|--0----0--x-0--0-0--0--x-x-|
------------------------------|--------------------------------| ------------------------------|--------------------------------| ------------------------------|-----------9-----9-----9-9--9-9-| --3h5-----5------7--7--7------|--7h9--7h9---7h9---7h9---9--9-9-| --3---3-3-3--3-3-5--5--5--5-6-|--7----7-----7-----7-----7--7-7-| ------------------------------|--------------------------------|
----------------------|---------------------------| ----------------------|-------0--0----------------| --7------------7/4--7/|--9---------9---9--12--11/-| ----------------------|---------------------------| ----------------------|---------------------------| ----------------------|---------------------------|
------------------12/10----12-|---------12/20/-----------| -------------7/12-------12----|----------------x-x-2--2--| --7----------7----------------|----------------x-x-2--2--| ------------------------------|--------------------------| ------------------------------|--------------------------| ------------------------------|--------------------------|
-----------------------|---------------------|-----------------------| -----------------------|---------------------|-----------------------| --7------------7/5---9-|------7----9----2/---|--5------5--5/7-----7/-| -------------------7---|---------------------|-----------------------| -----------------------|---------------------|-----------------------| -----------------------|---------------------|-----------------------|
---------------------------------|-------------------------------| ---------------------------------|-------------------------------| ---------------------------------|-------------------------------| --7h9--9-7h9-----7h9-----7h9-----|--5--5-5-5--5-5-5/7-7-7-7--7-7-| --7----7-7-------7-------7---7-7-|--3--3-3-3--3-3-3/5-5-5-5--5-5-| -------------0-0-----0-0---------|-------------------------------|
------------------------------|------------------------------| ------------------------------|------------------------------| --------------9--------9--9/7-|------------------------------| --7h9----9----9--9-9---9--9/7-|--5--5-5-5--5-5-2--2-2-5--5-5-| --7----7-7----7--7-7---7--7/5-|--3--3-3-3--3-3-3--3-3-3--3-3-| ------------0--------0--------|------------------------------|
----------------------------------|----------------------------------| ----------------------------------|----------------------------------| ----------------------------------|----------------------------------| --5h7-----5h7-----5h7-----5h7-----|--7h9-----7h9-----7h9-----7h9-----| --5---5-5-5---5-5-5---5-5-5---5-5-|--7-------7-------7-------7-------| ----------------------------------|------0-0-----0-0-----0-0-----0-0-|
----------------------------------|----------------------------| ----------------------------------|----------------------------| ----------------------------------|--7----7--7-7--7-7--7-7-7---| --7h9-----7h9-----7h9-----7h9-----|--7----7--7-7--7-7--7-7-7---| --7-------7-------7-------7---7---|--5----5--5-5--5-5--5-5-5---| ------0-0-----0-0-----0-0-------0-|--------------------------0-|
--------------------------|----------------------------| --------------------------|----------------------------| ----------x---------------|--7----7--7-7--7-7--7-7-7---| --2----2--x-2--2-2--2--2/-|--7----7--7-7--7-7--7-7-7---| --2----2--x-2--2-2--2--2/-|--5----5--5-5--5-5--5-5-5---| --0----0--x-0--0-0--0--0--|--------------------------0-|
--------------------------|----------------------------| --------------------------|----------------------------| ----------x---------------|--7----7--7-7--7-7--7-7-7---| --2----2--x-2--2-2--2--2/-|--7----7--7-7--7-7--7-7-7---| --2----2--x-2--2-2--2--2/-|--5----5--5-5--5-5--5-5-5---| --0----0--x-0--0-0--0--0--|--------------------------0-|
---------------------------|------------------------------------| ---------------------------|------------------------------------| ----------x------------x-x-|------------------------------------| --2----2--x-2--2-2--2--x-x-|--10----10---10------------------12-| --2----2--x-2--2-2--2--x-x-|--10----10---10-10--10--10-10-10-9--| --0----0--x-0--0-0--0--x-x-|--8-----8----8--8---8---8-----8-----|
----------------------------------|-------------------|------------------|| ----------------------------------|-------------------|------------------|| ----------------------------------|--9----------------|------------------|| --12----12---0-12--12--12----12/9-|--9----------------|------------------|| --9-----9------9---9---9/-10-9/-7-|--7----------------|------------------|| ----------------------------------|-------------------|------------------||
------------------------|------------------------------| ------15r-----15---12b--|----------------12-12/--------| ------------------------|----------------12-12/--------| ------------------------|--14------12h14---------------| ------------------------|-----------------------12-----| ------------------------|------------------------------|
---------------------------|--------------------------------| -----x-15r-----------------|----------------12----------15--| -----x---------14r--14-14--|--12r-----9r--0-12h14-14-12-14b-| ---------------------------|--------------0-----------------| ---------------------------|--------------------------------| ---------------------------|--------------------------------|
----------------------------------------|-------------------------------------| --15--15--15-15-12b-------------12------|-------------------------------------| --14--14--14-14-12b----12----11-12--14b-|--12--------12-14--14r---14/---------| --------------------14-12---------------|-----14--14-----------------7/-12h14-| --------------------x-----14------------|-------------------------------------| ----------------------------------------|-------------------------------------|
-----------------------------------------------|------------------------------| -----------------------------------------------|-------------------15b-15b----| --12-12/--------12-12--------------14-14r14p12-|--------12-12--12-------------| ----------12h14-----------12h14-12-------------|--14--------------------------| ----------------------14-----------------------|------------------------------| -----------------------------------------------|------------------------------|
--------------------|------------------|------------------|------------------| --15----------------|------------------|------------------|------------------| --------------------|------------------|------------------|------------------| --------------------|------------------|------------------|------------------| --------------------|------------------|------------------|------------------| --------------------|------------------|------------------|------------------|
------------------|------------------|------------------|------------------| ------------------|------------------|------------------|------------------| ------------------|------------------|------------------|------------------| ------------------|------------------|------------------|------------------| ------------------|------------------|------------------|------------------| ------------------|------------------|------------------|------------------|
------------------|------------------|------------------|------------------| ------------------|------------------|------------------|------------------| ------------------|------------------|------------------|------------------| ------------------|------------------|------------------|------------------| ------------------|------------------|------------------|------------------| ------------------|------------------|------------------|------------------|
------------------|----------------15/-|--14----------10/---10/-| ------------------|--------------------|------------------------| ------------------|--------------------|------------------------| ------------------|--------------------|------------------------| ------------------|--------------------|------------------------| ------------------|--------------------|------------------------|
--12------12--12/-----15/-|--14----------14/-10/------| ----------12--12/---------|----------------------8/10/| --------------------------|---------------------------| --------------------------|---------------------------| --------------------------|---------------------------| --------------------------|---------------------------|
--12-------12/19/-----15/-|--14----14/17-17------17/-10/-|--12-----------------| --12-------12/19/---------|------------------------------|---------------------| --------------------------|------------------------------|---------------------| --------------------------|------------------------------|------------------7/-| --------------------------|------------------------------|---------------------| --------------------------|------------------------------|---------------------|
----------------------|--------------------15-14-|------14/-10--------------| ----------------------|--------------------------|----------------10/-12/---| --5------------5/-----|--7----7------7--7/-------|--------------------------| ------------------5/4-|--------------------------|--------------------------| ----------------------|--------------------------|--------------------------| ----------------------|--------------------------|--------------------------|
-------------------|| -------------------|| -------------------|| -------------------|| ----------------x--|| -------------------||
Tap to rate this tab
 
# A B C D E F G H I J K L M N O P Q R S T U V W X Y Z