Metallica - St Anger tab

Tablatura de NICO M: (nicokbbl@hotmial.com)

Artista: Metallica
Cancion: St Anger
Album: St Anger (2003)


Intro1|---------------------------------------------------------|2|---------------------------------------------------------|3|---------------------------------------------------------|x24|---------------------------------------------------------|5|----------------------5-5-5------------------------------|6|--3-3-4-3-4-3-3-4-3-3------------------------------------|
1|---------------------------------------------------------|2|---------------------------------------------------------|3|----------------------7-7-7------------------------------|x64|--5-5-6-5-6-5-5-6-5-5-7-7-7------------------------------|5|--5-5-6-5-6-5-5-6-5-5-5-5-5------------------------------|6|--3-3-4-3-4-3-3-4-3-3------------------------------------|
1|---------------------------------------------------------|2|---------------------------------------------------------|3|------------------7-7------------------------------------|x74|--5-5-5-5-5-5-5-5-7-7------------------------------------|5|--5-5-5-5-5-5-5-5-5-5------------------------------------|6|--3-3-3-3-3-3-3-3----------------------------------------|
1|---------------------------------------------------------|2|---------------------------------------------------------|3|---------------------------------------------------------|4|--5-0x-5-0x-5-0x-----------------------------------------|5|--5-0x-5-0x-5-0x-----------------------------------------|6|--3-0x-3-0x-3-0x-----------------------------------------|
St. Anger round my neck St. Anger round my neck He never gets respect St. Anger round my neck
1|---------------------------------------------------------|2|---------------------------------------------------------|3|--7--5---------------------------------------------------|x44|--7--5--8--6---------------------------------------------|5|--5--3--8--6---------------------------------------------|6|--------6--4---------------------------------------------|
¡You flush it out! ¡You flush it out! St. Anger round my neck ¡You flush it out! ¡You flush it out! He never gets respect ¡You flush it out! ¡You flush it out! St. Anger round my neck ¡You flush it out! ¡You flush it out! He never gets respect
1|---------------------------------------------------------|2|---------------------------------------------------------|3|---------------------------------------------------------|4|-7-5--5-0x-5-0x-5-0x--7-5--------------------------------|5|-7-5--5-0x-5-0x-5-0x--7-5--------------------------------|6|-5-3--3-0x-3-0x-3-0x--5-3--------------------------------|
(Coro) (Chorus)1|---------------------------------------------------------|2|---------------------------------------------------------|3|--7-------------3----------------------------------------|x74|--7-------------3---8--6---------------------------------|5|--5-------------5---8--6---------------------------------|6|--------------------6--4---------------------------------|
Fuck it all and no regrets I hit the lights on these dark sets I need a voice to let myself To let myself go free Fuck it all and fuck it no regrets I hit the lights on these dark sets Medallion noose I hang myself St. Anger round my neck I feel my world shake like an earthquake Hard to see clear Is it me is it fear? I'm madly in anger with you (x2)
1|---------------------------------------------------------|2|---------------------------------------------------------|3|-----------------------------------------7-7-7-----------|4|--7---5-5--5-5--5-5--5-5-----5-5-6-5-6-5-7-7-7-----------|5|--7---5-5--5-5--5-5--5-5-----5-5-6-5-6-5-5-5-5-----------|6|--5---3-3--3-3--3-3--3-3-----3-3-4-3-4-3-----------------|
1|---------------------------------------------------------|2|---------------------------------------------------------|3|------------------7-7------------------------------------|x74|--5-5-5-5-5-5-5-5-7-7------------------------------------|5|--5-5-5-5-5-5-5-5-5-5------------------------------------|6|--3-3-3-3-3-3-3-3----------------------------------------|
1|---------------------------------------------------------|2|---------------------------------------------------------|3|---------------------------------------------------------|4|--5-0x-5-0x-5-0x-----------------------------------------|5|--5-0x-5-0x-5-0x-----------------------------------------|6|--3-0x-3-0x-3-0x-----------------------------------------|
St. Anger round my neck St. Anger round my neck He never gets respect St. Anger round my neck
1|---------------------------------------------------------|2|---------------------------------------------------------|3|--7--5---------------------------------------------------|x44|--7--5--8--6---------------------------------------------|5|--5--3--8--6---------------------------------------------|6|--------6--4---------------------------------------------|
¡You flush it out! ¡You flush it out! St. Anger round my neck ¡You flush it out! ¡You flush it out! He never gets respect ¡You flush it out! ¡You flush it out! St. Anger round my neck ¡You flush it out! ¡You flush it out! He never gets respect
1|---------------------------------------------------------|2|---------------------------------------------------------|3|---------------------------------------------------------|4|-7-5--5-0x-5-0x-5-0x--7-5--------------------------------|5|-7-5--5-0x-5-0x-5-0x--7-5--------------------------------|6|-5-3--3-0x-3-0x-3-0x--5-3--------------------------------|
(Coro) (Chorus)1|---------------------------------------------------------|2|---------------------------------------------------------|3|--7-------------3----------------------------------------|x84|--7-------------3---8--6---------------------------------|5|--5-------------5---8--6---------------------------------|6|--------------------6--4---------------------------------|
Fuck it all and no regrets I hit the lights on these dark sets I need a voice to let myself To let myself go free Fuck it all and fuck it no regrets I hit the lights on these dark sets Medallion noose I hang myself St. Anger round my neck I feel my world shake like an earthquake Hard to see clear Is it me is it fear? I'm madly in anger with you (x4)
1|---------------------------------------------------------|2|---------------------------------------------------------|3|-----------------------------------------7-7-7-----------|4|--7---5-5--5-5--5-5--5-5-----5-5-6-5-6-5-7-7-7-----------|5|--7---5-5--5-5--5-5--5-5-----5-5-6-5-6-5-5-5-5-----------|6|--5---3-3--3-3--3-3--3-3-----3-3-4-3-4-3-----------------|
1|---------------------------------------------------------|2|---------------------------------------------------------|3|----------------------7-7-7------------------------------|x104|--5-5-6-5-6-5-5-6-5-5-7-7-7------------------------------|5|--5-5-6-5-6-5-5-6-5-5-5-5-5------------------------------|6|--3-3-4-3-4-3-3-4-3-3------------------------------------|
I want my anger to be healthy I want my anger just for me I need my anger not to control I want my anger to be me I need set my anger free I need to set my anger free Set it free!
1|---------------------------------------------------------|2|---------------------------------------------------------|3|------------------7-7------------------------------------|x34|--5-5-5-5-5-5-5-5-7-7------------------------------------|5|--5-5-5-5-5-5-5-5-5-5------------------------------------|6|--3-3-3-3-3-3-3-3----------------------------------------|
1|---------------------------------------------------------|2|---------------------------------------------------------|3|---------------------------------------------------------|4|--5-0x-5-0x-5-0x-----------------------------------------|5|--5-0x-5-0x-5-0x-----------------------------------------|6|--3-0x-3-0x-3-0x-----------------------------------------|
(Coro) (Chorus)1|---------------------------------------------------------|2|---------------------------------------------------------|3|--7-------------3----------------------------------------|x84|--7-------------3---8--6---------------------------------|5|--5-------------5---8--6---------------------------------|6|--------------------6--4---------------------------------|
Fuck it all and no regrets I hit the lights on these dark sets I need a voice to let myself To let myself go free Fuck it all and fuck it no regrets I hit the lights on these dark sets Medallion noose I hang myself St. Anger round my neck I feel my world shake like an earthquake Hard to see clear Is it me is it fear? I'm madly in anger with you (x4)
1|---------------------------------------------------------|2|---------------------------------------------------------|3|-----------------------------------------7-7-7-----------|4|--7---5-5--5-5--5-5--5-5-----5-5-6-5-6-5-7-7-7--3--------|5|--7---5-5--5-5--5-5--5-5-----5-5-6-5-6-5-5-5-5--3--------|6|--5---3-3--3-3--3-3--3-3-----3-3-4-3-4-3--------1--------|
Tap to rate this tab
 
# A B C D E F G H I J K L M N O P Q R S T U V W X Y Z