Metallica - The Struggle Within tab

(Sometimes I write about how many beats are played every time but sometimes I had tabbed only the one beat so you have to play it that times as I have written. This idea I take it from an other tab). 

The song starts with drums---------------|---------------|---------------|-----------------|---------------|---------------|---------------|-----------------|---Drums-------|---Drums-------|--Drums--------|----Drums--------|---------------|---------------|---------------|-----------------|---------------|---------------|---------------|-----------------|---------------|---------------|---------------|-----------------|
Guitar I&II ---------------|---------------|---------------|-----------------|3x---------------|-6-7-----------|7-8-------7--8-|10---------------|---------------|------7--------|---8----10-----|-----------------|-2-------------|---------------|---------------|-----------------|-2---3--4-5-3--|---------------|---------------|-----------------|---------------|---------------|---------------|-----------------|
Guitar I---------------|--------12-----|-----------(12)\2|---------------|---------------|-----------------|---------------|---------------|-----------------|-2-------------|---------------|-----------------|-2-------------|---------------|-----------------|-0-------------|---------------|-----------------|
---------------|---------------|---------------|-----------------|---------------|---------------|---------------|-----------------|---------------|---------------|---------------|-----------------|-2---2---------|--2---2--------|---2---2-------|---2---2---------|-2---2---------|--2---2--------|---2---2-------|---2---2---------|-0---0---------|--0---0--------|---0---0-------|---0---0---------|
---------------|---------------|---------------|-----------------|---------------|---------------|---------------|-----------------|---------------|---------------|---------------|-----------------|-2---2---------|--2---2--------|---2---2-------|---2---2---------|-2---2---------|--2---2--------|---2---2-------|---2---2---------|-0---0---------|--0---0--------|---0---0-------|---0---0---------| Reaching out for something you’ve got-ta feel__
---------------|---------------|---------------|-----------------|---------------|---------------|---------------|-----------------|---------------|---------------|---------------|-----------------|---------------|---------------|-2-------------|-----------------|---------------|---------------|-2-------------|-----------------|---------------|---------------|-0-------------|-----------------| You’re clutching to what you had thought was re-al
Guitar I&II ---------------|---------------|---------------|-----------------|---------------|---------------|---------------|-----------------|---------------|---------------|---------------|-----------------|---------------|---5------5----|-2----2--------|------------4/5--|---------------|---5------5----|-2----2--------|------------4/5--|---------------|---3------3----|-0----0--------|------------2/3--| Kicking at a dead horse pleases you__
---------------|---------------|---------------|-----------------|---------------|---------------|---------------|-----------------|---------------|---------------|---------------|-----------------|---------------|----------4/5--|-2-------------|----------5------|---------------|----------4/5--|-2-------------|----------5------|---------------|----------2/3--|-0-------------|----------3------| No way of showing` your grad I tude___
---------------|---------------|---------------|-----------------|---------------|---------------|---------------|-----------------|---------------|---------------|---------------|-----------------|-2-------------|---------3-----|-2-------------|-----------4/5---|-2-------------|---------3-----|-2-------------|-----------4/5---|-0-------------|---------1-----|-0-------------|-----------2/3---|______ S______________ so man - y
---------------|---------------|---------------|-----------------|---------------|---------------|---------------|-----------------|---------------|---------------|---------------|-----------------|-2-------------|---------4/5---|-2-------------|------------5----|-2-------------|---------4/5---|-2-------------|------------5----|-0-------------|---------2/3---|-0-------------|------------3----|Things you don’t wanna to do_______ what is it,
---------------|---------------|---------------|-----------------|---------------|---------------|---------------|-----------------|---------------|---------------|---------------|-----------------|-2-------------|----------5----|-2-------------|------------3----|-2-------------|----------5----|-2-------------|------------3----|-0-------------|----------3----|-0-------------|------------1----|what have you got_ to lose?____________________
---------------|---------------|---------------|-----------------|---------------|---------------|---------------|-----------------|---------------|---------------|---------------|-----------------|-2---3---2---3-|-2-------------|----------4/5--|-2---------------|-2---3---2---3-|-2-------------|----------4/5--|-2---------------|-0---1---0---1-|-0-------------|----------2/3--|-0---------------| (What the hell?) What the hell?____
---------------|---------------|---------------|-----------------|---------------|---------------|---------------|-----------------|---------------|---------------|---------------|-----------------|-2--------4/5--|-2-------------|---------5-----|-2---5---2---5---|-2--------4/5--|-2-------------|---------5-----|-2---5---2---5---|-0--------2/3--|-0-------------|---------3-----|-0---3---0---3---|What is it you think you’re gonna find?________________
---------------|---------------|---------------|-----------------|---------------|---------------|---------------|-----------------|---------------|---------------|---------------|-----------------|-2-------------|----------5----|-2-------------|----------5------|-2-------------|----------5----|-2-------------|----------5------|-0-------------|----------3----|-0-------------|----------3------|(Hyp-o-crite.) Hyp - o- crite. Bore-dom sets
---------------|---------------|---------------|-----------------|---------------|---------------|---------------|-----------------|---------------|---------------|---------------|-----------------|-2-------------|----------5----|-2---5---2---5-|-----------------|-2-------------|----------5----|-2---5---2---5-|-----------------|-0-------------|----------3----|-0---3---0---3-|-----------------|into the bor - ing mind._________________________
FROM NOW ON EACH BAR MEANS 4 BEATS
Guitar I---------------|---------------|---------------|-----------------|---------------|---------------|---------------|-----------------|---------------|---------------|---------------|-----------------|--5--5----5/7--|-3--3----5/7---|--5--5---5/7---|--3--3----5/7----|--5--5---------|-3--3----------|--5--5---------|--3--3-----------|--3--3---------|-1--1----------|--3--3---------|--1--1-----------|
Guitar II---------------|---------------|---------------|-----------------|---------------|---------------|---------------|-----------------|---------------|---------------|---------------|-----------------|--5--5----5/7--|-3--3----5/7---|--5--5---5/7---|--3--3----5/7----|--5--5---------|-3--3----------|--5--5---------|--3--3-----------|--3--3---------|-1--1----------|--3--3---------|--1--1-----------|
Guitar I&II---------------|---------------|---------------|-----------------|---------------|---------------|---------------|-----------------|---------------|---------------|---------------|-----------------|--4------------|--2------------|--4------------|--2--------------|--4------------|--2------------|--4------------|--2--------------|--2------------|--0------------|--2------------|--0--------------| It suits fine__ Your ru………...in.(Struggle within) (Struggle within)
---------------|---------------|---------------|-----------------|---------------|---------------|---------------|-----------------|---------------|---------------|---------------|-----------------|--4------------|--2------------|--4------------|--2--------------|--4------------|--2------------|--4------------|--2--------------|--2------------|--0------------|--2------------|--0--------------| You seal your own coffin. The struggling within.(Struggle within) (Struggle within)
Guitar I&II
---------------|---------------|---------------|-----------------|---------------|---------------|---------------|-----------------|---------------|---------------|---------------|-----------------|--5---5---5/7--|--3---3---5/7--|--5---5---5/7--|--3---3---5/7----|--5---5--------|--3---3--------|--5---5--------|--3---3----------|--3---3-------- --------------- --------------- -----------------|
Guitar I&II---------------|---------------|---------------|----------------|---------------|---------------|---------------|----------------|---------------|---------------|---------------|----------------|--2------2-----|-(2)-----------|-(2)-----------|-(2)------------|--2------2-----|-(2)-----------|-(2)-----------|-(2)------------|--0------0-----|-(0)-----------|-(0)-----------|-(0)------------|
Guitar I&II---------------|---------------|---------------|-----------------|---------------|---------------|---------------|-----------------|---------------|---------------|---------------|-----------------|--2-------5----|-2-------------|--------4---5--|-2---------------|--2-------5----|-2-------------|--------4---5--|-2---------------|--0-------3----|-0-------------|--------2---3--|-0---------------|Home is not a home it be- comes a hell__________
---------------|---------------|---------------|-----------------|---------------|---------------|---------------|-----------------|---------------|---------------|---------------|-----------------|--2--2--4------|-2-------------|-------------5-|--2--------------|--2--2--4------|-2-------------|-------------5-|--2--------------|--0--0--2------|-0-------------|-------------3-|--0--------------|Turning it in-to a prison cell. _________
Guitar I&II---------------|---------------|---------------|-----------------|---------------|---------------|---------------|-----------------|---------------|---------------|---------------|-----------------|--4------------|--2------------|--4---------5--|-2---------------|--4------------|--2------------|--4---------5--|-2---------------|--2------------|--0------------|--2---------3--|-0---------------| Advantages are taken not
---------------|---------------|---------------|-----------------|---------------|---------------|---------------|-----------------|---------------|---------------|---------------|-----------------|------------5--|-2-------------|----------5----|--2--------------|------------5--|-2-------------|----------5----|--2--------------|------------3--|-0------------- ----------3---- --0--------------|handed out. While you struggle in-
---------------|---------------|---------------|-0---------------|---------------|---------------|---------------|-0---------------|---------------|---------------|---------------|-1---------------|-----------5---|-2-------------|-------4-------|-2---4----2---4--|-----------5---|-2-------------|-------4-------|-2---4----2---4--|-----------3---|-0-------------|-------2-------|-0---2----0---2--|side your hell,_____________________________ow.
Guitar I&II---------------|---------------|---------------|-----------------|---------------|---------------|---------------|-----------------|---------------|---------------|---------------|-----------------|-2-------------|--------4---5--|-2-------------|-----------4---5-|-2-------------|--------4---5--|-2-------------|-----------4---5-|-0-------------|--------2---3--|-0-------------|-----------0---3-|(Reaching out.) Reaching out______ Grab - bing for
---------------|---------------|---------------|-----------------|---------------|---------------|---------------|-----------------|---------------|---------------|---------------|-----------------|-2-------------|-----------5---|-2---5---2--5--|-2---------------|-2-------------|-----------5---|-2---5---2--5--|-2---------------|-0-------------|-----------3---|-0---3---0--3--|-0---------------|something you’ve got to feel._______ (Closing in.)
---------------|---------------|---------------|-----------------|---------------|---------------|---------------|-----------------|---------------|---------------|---------------|-----------------|--------4---5--|-2-------------|--------4----5-|-2---------------|--------4---5--|-2-------------|--------4----5-|-2---------------|--------2---3--|-0-------------|--------0----3-|-0---------------|Closing in.____ The pres-sure up - on you is
---------------|---------------|---------------|-----------------|---------------|---------------|---------------|-----------------|---------------|---------------|---------------|-----------------|--------4---5--|-2--5---2---5--|---------------|-----------------|--------4---5--|-2--5---2---5--|---------------|-----------------|--------2---3--|-0--3---0---3--|---------------|-----------------|So unreal. ____________________
Guitar I&II---------------|---------------|---------------|-----------------|---------------|---------------|---------------|-----------------|---------------|---------------|---------------|-----------------|--5--5----5/7--|-3--3----5/7---|--5--5---5/7---|--3--3----5/7----|--5--5---------|-3--3----------|--5--5---------|--3--3-----------|--3--3---------|-1--1----------|--3--3---------|--1--1-----------|
Guitar I&II---------------|---------------|---------------|-----------------|---------------|---------------|---------------|-----------------|---------------|---------------|---------------|-----------------|--4------------|--2------------|--4------------|--2--------------|--4------------|--2------------|--4------------|--2--------------|--2------------|--0------------|--2------------|--0--------------| It suits fine__ Your ru………...in.(Struggle within) (Struggle within)
---------------|---------------|---------------|-----------------|---------------|---------------|---------------|-----------------|---------------|---------------|---------------|-----------------|--4------------|--2------------|--4------------|--2--------------|--4------------|--2------------|--4------------|--2--------------|--2------------|--0------------|--2------------|--0--------------| You seal your own coffin. The struggling within.(Struggle within) (Struggle within)
Guitar I&II
---------------|---------------|---------------|--------------|---------------|---------------|---------------|--------------|---------------|---------------|---------------|--------------|--5---5---5/7--|--3---3---5/7--|--5---5---5/7--|-3---3---5/7--|--5---5--------|--3---3--------|--5---5--------|-3---3--------|--3---3-------- --------------- --------------- --------------| Struggle
SOLO (The rhythm guitar plays riffs that I had already tabbed)
-----12-----12-----12-----12---|-----12-12-----12-12------12-----|-15F--X-15F----15F----15F------|-15F-------15F-----X--15F--------|-------------------------------|---------------------------------|-------------------------------|---------------------------------|-------------------------------|---------------------------------|-------------------------------|---------------------------------|
-----12--12-----12-12------12--|---7^---7^--17^^~~~~~~~~~~~~-----|-15F--------15F-----X--15F-----|---------------------------------|-------------------------------|--------------------------X\-----|-------------------------------|---------------------------------|-------------------------------|---------------------------------|-------------------------------|---------------------------------|
-------------------------------|---------------------------------|X 2--------7----------------------|---------------------------------|--/10^8^-6-7-------------------|----10^8^7^6---------------------|-------------------------------|-10------------------------------|-------------------------------|---------------------------------|-------------------------------|---------------------------------|
-------------------------------|---------------------------------|-------------------------------|---------------------------------|-10^8^76-----------------------|---------------------------------|--------9^7^---9^7^------------|---------------------------------|----------------------9^7^-----|--9^7^---------------------------|-------------------------------|---------10---7^-----------------|
-17--19--15--17--14--15----19--|---------------------------------|------------------------17-----|-14-----------15-----17---19-----|-------------------------------|---------------------------------|-------------------------------|---------------------------------|-------------------------------|---------------------------------|-------------------------------|---------------------------------|
19^19^15-17-15-14-15--14----------------------------------------|--------------------17--17-15---14---15---17/19------------------|-----------------------------16----------------------------------|-----------------------------------------------------------------|-----------------------------------------------------------------|-----------------------------------------------------------------|
----------------------------------------------------------------|15-18-15-17-14-18-15--17/9--------------------------------------|----------------------------------------------------------------|----------------------------------------------------------------|----------------------------------------------------------------|----------------------------------------------------------------|
----------------------------------------------------------------|----------------------------------------------------------------|------------3---------------------------3-----------------------|--5----5-------5---3-------------3---5------5-------------------|----------------------5-----------------------------------------|----------------------------------------------------------------|
(From now on he uses a wah wah effect)----------------------------------------------------------------|---------14--14---14---14-------(14)--14------14-----14---------|---------14--14---14---14-------(14)--14------14-----14---------|----------------------------------------------------------16^14-| ----------------------------------------------------------------|----------------------------------------------------------------|
---------------------------------| ------------------------------- ---------------------------------|------------------------------- -------14------------------------|----14------------------------- --16F-----17-15--14--------------|-16----16---15----------------- -----------------------16-15-----|------------------------------- ---------------------------------|-------------------------------
-------------------------------| X 2--14---------------------------|-----16^--16--14---------------|-------------------------------|-------------------------------|-------------------------------|
-------------------------------------------------------------- ---------------------------------|-------------14---------------- ---------------------------------|--16--14--16----17------------- ---17^-17^-16--------------------|------------------------------- ---------------------------------|------------------------------- ---------------------------------| ---------------------------------|
18^15--15-------------------------------------------------------|Well, please-----18--18-15-18^15----15--------------------------------------|correct this---------------------18---17-15-17^15-15-15---------------------|-------------------------------------------17-15-17^15---15-----|-------------------------------------------------------17--17-15|----------------------------------------------------------------|
------12--12--12--12-12--|-------19--19--19--19-19------------|------12--12--12--12-12--|-------19--19--19--19-19------------|-------------------------|------------------------------------|-------------------------|------------------------------------|-------------------------|------------------------------------|-------------------------|------------------------------------|
Guitar I&II ---------------|---------------|---------------|----------------|X 3 ---------------|---------------|---------------|----------------|---------------|---------------|---------------|----------------|-5-------------|-4-------------|-2-------------|------2-2-2-2---|-5-------------|-4-------------|-2-------------|------2-2-2-2---|-3-------------|-2-------------|-0-------------|------0-0-0-0---|
Guitar I&II---------------|---------------|---------------|X 2---------------|---------------|---------------|---------------|---------------|---------------|-5-------------|-4-------------|-2-------------|-5-------------|-4-------------|-2-------------|-3-------------|-2-------------|-0-------------|
Guitar I&II ---------------|---------------|---------------|----------------|X 3 ---------------|---------------|---------------|----------------|---------------|---------------|---------------|----------------|-5-------------|-4-------------|-2-------------|------2-2-2-2---|-5-------------|-4-------------|-2-------------|------2-2-2-2---|-3-------------|-2-------------|-0-------------|------0-0-0-0---|
Guitar I&II---------------|---------------|---------------|X 2---------------|---------------|---------------|---------------|---------------|---------------|-5-------------|-4-------------|-2-------------|-5-------------|-4-------------|-2-------------|-3-------------|-2-------------|-0-------------|
|---------------||---------------||---------------||-2-2-2---------||-2-2-2---------||-0-0-0---------|
From now on each bar is 2 Beats
---------------|---------------|---------------|-----------------|---------------|---------------|---------------|-----------------|---------------|---------------|---------------|-----------------|-2-------------|----------5----|-2-------------|------------3----|-2-------------|----------5----|-2-------------|------------3----|-0-------------|----------3----|-0-------------|------------1----|Reaching out for something you’ve got-ta feel__
---------------|---------------|---------------|-----------------|---------------|---------------|---------------|-----------------|---------------|---------------|---------------|-----------------|-2-------------|----------5----|-2-------------|------------3----|-2-------------|----------5----|-2-------------|------------3----|-0-------------|----------3----|-0-------------|------------1----|You’re clutching to what you had thought was re-al
---------------|---------------|---------------|-----------------|---------------|---------------|---------------|-----------------|---------------|---------------|---------------|-----------------|-2---3---2---3-|-2-------------|----------4/5--|-2---------------|-2---3---2---3-|-2-------------|----------4/5--|-2---------------|-0---1---0---1-|-0-------------|----------2/3--|-0---------------|
What the hell?___---------------|---------------|---------------|-----------------|---------------|---------------|---------------|-----------------|---------------|---------------|---------------|-----------------|-2--------4/5--|-2-------------|---------5-----|-2---5---2---5---|-2--------4/5--|-2-------------|---------5-----|-2---5---2---5---|-0--------2/3--|-0-------------|---------3-----|-0---3---0---3---|What is it you think you’re gon-na find?________________
---------------|---------------|---------------|-----------------|---------------|---------------|---------------|-----------------|---------------|---------------|---------------|-----------------|-2-------------|----------5----|-2-------------|----------5------|-2-------------|----------5----|-2-------------|----------5------|-0-------------|----------3----|-0-------------|----------3------|(Hyp-o-crite.) Hyp - o- crite. Bore-dom sets
(1/2 beat pause)---------------|---------------|---------------|-----------------|---------------|---------------|---------------|-----------------|---------------|---------------|---------------|-----------------|-2-------------|----------5----|-2---5---2---5-|-----------------|-2-------------|----------5----|-2---5---2---5-|-----------------|-0-------------|----------3----|-0---3---0---3-|-----------------|into the boring mind._________________________
Guitar I&II---------------|---------------|---------------|-----------------|---------------|---------------|---------------|-----------------|---------------|---------------|---------------|-----------------|--5--5----5/7--|-3--3----5/7---|--5--5---5/7---|--3--3----5/7----|--5--5---------|-3--3----------|--5--5---------|--3--3-----------|--3--3---------|-1--1----------|--3--3---------|--1--1-----------|
Guitar I&II---------------|---------------|---------------|-----------------|---------------|---------------|---------------|-----------------|---------------|---------------|---------------|-----------------|--4------------|--2------------|--4------------|--2--------------|--4------------|--2------------|--4------------|--2--------------|--2------------|--0------------|--2------------|--0--------------| It suits fine__ Your ru………...in.(Struggle within) (Struggle within)
---------------|---------------|---------------|-----------------|---------------|---------------|---------------|-----------------|---------------|---------------|---------------|-----------------|--4------------|--2------------|--4------------|--2--------------|--4------------|--2------------|--4------------|--2--------------|--2------------|--0------------|--2------------|--0--------------| You seal your own coffin. The struggling within.(Struggle within) (Struggle within)
Guitar I&II
---------------|---------------|---------------|--------------|---------------|---------------|---------------|--------------|---------------|---------------|---------------|--------------|--5---5---5/7--|--3---3---5/7--|--5---5---5/7--|-3---3---5/7--|--5---5--------|--3---3--------|--5---5--------|-3---3--------|--3---3--------|---------------|---------------|--------------|
---------------|---------------|---------------|-----------------|---------------|---------------|---------------|-----------------|---------------|---------------|---------------|-----------------|-2---2---------|--2---2--------|---2---2-------|---2---2---------|-2---2---------|--2---2--------|---2---2-------|---2---2---------|--0--0---------|--0---0--------|---0---0-------|---0---0---------|
|---------------||---------------||---------------||-2-2-2-2-------||-2-2-2-2-------||-0—0-0-0-------|
Tap to rate this tab
 
# A B C D E F G H I J K L M N O P Q R S T U V W X Y Z