Metallica - Fade To Black Live tab

                                Fade To Black                                   

This Was Kinda Tough I Have Tabbed Both On Live Version Of James And Kirk 
This Is 100 % Correct But Tooo Long !!
Pls Rate
                                                                       Metallica
James



    

E||--------------------------|--------------------------|B||--------------------------|--------------------------|G||--------0-----------------|--------0-----------------|D||-----4-----4-----4-----4--|-----4-----4-----4-----4--|A||--2-----------2-----5-----|--0-----------0-----5-----|E||--------------------------|--------------------------|
--------------------------|--------------------------|--------------------------|--------------------------|--------0-----------------|--------2-----------------|-----4-----4-----4-----4--|-----2-----2-----2-----2--|--2-----------2-----5-----|--4-----------4-----0-----|--------------------------|--------------------------|
--------------------------|--------------------------|--------------------------|--------------------------|--------0-----------------|--------0-----------------|-----4-----4-----4-----4--|-----4-----4-----4-----4--|--2-----------2-----5-----|--0-----------0-----5-----|--------------------------|--------------------------|
--------------------------|-------------------|--------------------------|--------------------------|-------------------|--------------------------|--------0-----------------|--2----------------|--------0-----------------|-----4-----4-----4-----4--|--2----------------|-----4-----4-----4-----4--|--2-----------2-----5-----|--4----------------|--2-----------2-----5-----|--------------------------|-------------------|--------------------------|
--------------------------|--------------------------|--------------------------|--------------------------|--------0-----------------|--------0-----------------|-----4-----4-----4-----4--|-----4-----4-----4-----4--|--0-----------0-----5-----|--2-----------2-----5-----|--------------------------|--------------------------|
--------------------------|--------------------------|--------------------------|--------------------------|--------2-----------------|--------0-----------------|-----2-----2-----2-----2--|-----4-----4-----4-----4--|--4-----------4-----0-----|--2-----------2-----5-----|--------------------------|--------------------------|
--------------------------|--------------------------|--------------------------|--------------------------|--------0-----------------|--------0-----------------|-----4-----4-----4-----4--|-----4-----4-----4-----4--|--0-----------0-----5-----|--2-----------2-----5-----|--------------------------|--------------------------|
--------------------------|--------------------------|--------------------------|--------------------------|--------2-----------------|--------0-----------------|-----2-----2-----2-----2--|-----4-----4-----4-----4--|--4-----------4-----0-----|--2-----------2-----5-----|--------------------------|--------------------------|
--------------------------|--------------------------|--------------------------|--------------------------|--------0-----------------|--------0-----------------|-----4-----4-----4-----4--|-----4-----4-----4-----4--|--0-----------0-----5-----|--2-----------2-----5-----|--------------------------|--------------------------|
--------------------------|--------------------------|--------------------------|--------------------------|--------2-----------------|--------0-----------------|-----2-----2-----2-----2--|-----4-----4-----4-----4--|--4-----------4-----0-----|--2-----------2-----5-----|--------------------------|--------------------------|
--------------------------|--------------------------|--------------------------|--------------------------|--------0-----------------|--------0-----------------|-----4-----4-----4-----4--|-----4-----4-----4-----4--|--0-----------0-----5-----|--2-----------2-----5-----|--------------------------|--------------------------|
--------------------------|--------------------------|--------------------------|--------------------------|--------2-----------------|--------------------------|-----2-----2-----2-----2--|--------0-----------2-----|--4-----------4-----0-----|-----3-----------2-----2--|--------------------------|--1--------1--4-----------|
--------------------------|---------------0------------|--------------------0--3--|--0h--1------------------1--|--------1--------1--------|--2------2-----------0-2----|-----2--------2-----------|--2---------2-----2---------|--2--------2--------------|----------------------------|--------------------------|----------------------------|
-------------0------------|-------------3-----------|-------------------------|-------1---------------0--|-------3-----------------|-------------0----1g3----|--0----------------0-2----|--0----------------2--0--|--0----------0----2g4----|--2-------2-----2---------|--0-------0-----0--------|-------2-----------------|--3-----------------------|--2----------------------|----------2--------------|--------------------------|-------------------------|-------------------------|
---------------0------------|-------------0------------|--0h--1------------------1--|-------1---------------0--|--2------2-----------0-2----|--0----------------0-2----|--2---------2-----2---------|--2-------2-----2---------|----------------------------|--3-----------------------|----------------------------|--------------------------|
-------------3-----------|-------------------------|-------3-----------------|-------------0----1g3----|--0----------------2--0--|--0----------0----2g4----|--0-------0-----0--------|-------2-----------------|--2----------------------|----------2--------------|-------------------------|-------------------------|
---------------0------------|-------------0------------|--0h--1------------------1--|-------1---------------0--|--2------2-----------0-2----|--0----------------0-2----|--2---------2-----2---------|--2-------2-----2---------|----------------------------|--3-----------------------|----------------------------|--------------------------|
-------------3-----------|-------------------------|-------3-----------------|-------------0----1g3----|--0----------------2--0--|--0----------0----2g4----|--0-------0-----0--------|-------2-----------------|--2----------------------|----------2--------------|-------------------------|-------------------------|
---------------0------------|-------------0------------|--0h--1------------------1--|-------1---------------0--|--2------2-----------0-2----|--0----------------0-2----|--2---------2-----2---------|--2-------2-----2---------|----------------------------|--3-----------------------|----------------------------|--------------------------|
-------------3-----------|-------------------------|-------3-----------------|-------------0----1g3----|--0----------------2--0--|--0----------0----2g4----|--0-------0-----0--------|-------2-----------------|--2----------------------|----------2--------------|-------------------------|-------------------------|
---------------0------------|-------------0------------|--0h--1------------------1--|-------1---------------0--|--2------2-----------0-2----|--0----------------0-2----|--2---------2-----2---------|--2-------2-----2---------|----------------------------|--3-----------------------|----------------------------|--------------------------|
-------------3-----------|-------------------------|-------3-----------------|-------------0----1g3----|--0----------------2--0--|--0----------0----2g4----|--0-------0-----0--------|-------2-----------------|--2----------------------|----------2--------------|-------------------------|-------------------------|
---------------0------------|-------------0------------|--0h--1------------------1--|-------1---------------0--|--2------2-----------0-2----|--0----------------0-2----|--2---------2-----2---------|--2-------2-----2---------|----------------------------|--3-----------------------|----------------------------|--------------------------|
-------------3----------------|-----------------------<>12----|-------3----------------------|---------------<>12------------|--0----------------2p-0h-2p-0-|--0----<>12--------------------|--0-------0-----0-------------|--2----------------------------|--2---------------------------|-------------------------------|------------------------------|-------------------------------|
PM PM PM PM
---------------------------|---------------------------|----------------------|---------------------------|---------------------------|----------------------|--2------2--2--------------|--5------5--5--------------|--2------2--2----7----|--2------2--2--------------|--5------5--5--------------|--2------2--2----7----|--0------0--0-----------5--|--3------3--3-----------5--|--0------0--0----5----|---------------0--0--3-----|---------------0--0--3-----|----------------------|
PM PM PM PM
---------------------------|---------------------------|---------------------------|---------------------------|--9------9--9--------------|--2------2--2--------------|--9------9--9--------------|--2------2--2--------------|--7------7--7--------3--2--|--0------0--0-----------5--|---------------0--0--------|---------------0--0--3-----|
PM PM PM PM
---------------------------|-----------------------|-------------------|---------------------------|-----------------------|-------------------|--5------5--5--------------|--2------2--2----------|-------------------|--5------5--5--------------|--2------2--2----------|--2----------------|--3------3--3-----------5--|--0------0--0----5--4--|--2----------------|---------------0--0--3-----|-----------------3--2--|--0----------------|
PM PM PM PM
---------------------------|---------------------------|----------------------|---------------------------|---------------------------|----------------------|--2------2--2--------------|--5------5--5--------------|--2------2--2----7----|--2------2--2--------------|--5------5--5--------------|--2------2--2----7----|--0------0--0-----------5--|--3------3--3-----------5--|--0------0--0----5----|---------------0--0--3-----|---------------0--0--3-----|----------------------|
PM PM PM PM
---------------------------|---------------------------|---------------------------|---------------------------|--9------9--9--------------|--2------2--2--------------|--9------9--9--------------|--2------2--2--------------|--7------7--7--------3--2--|--0------0--0-----------5--|---------------0--0--------|---------------0--0--3-----|
PM PM PM PM
---------------------------|-----------------------|-------------------|---------------------------|-----------------------|-------------------|--5------5--5--------------|--2------2--2----------|-------------------|--5------5--5--------------|--2------2--2----------|--2----------------|--3------3--3-----------5--|--0------0--0----5--4--|--2----------------|---------------0--0--3-----|-----------------3--2--|--0----------------|
---------------------------|-------------0------------|--0--1------------------1--|-------1---------------0--|--2-----2-----------0-2----|-------------------0-2----|--2--------2-----2---------|----------2-----2---------|---------------------------|--3-----------------------|---------------------------|--------------------------|
-------------3-----------|-------------------------|--------------0------------|-------3-----------------|-------------0----1g3----|--0--1------------------1--|--0----------------2--0--|--0----------0----2g4----|--2-----2-----------0-2----|----------0-----0--------|-------2-----------------|--2--------2-----2---------|-------------------------|----------2--------------|---------------------------|-------------------------|-------------------------|---------------------------|
-------------0------------|-------------3------------|-------------------------|-------1---------------0--|-------3------------------|-------------0----1g3----|-------------------0-2----|--0----------------2br----|--0----------0----2g4----|----------2-----2---------|----------0-----0---------|-------2-----------------|--3-----------------------|--------------------------|----------2--------------|--------------------------|--------------------------|-------------------------|
--------------0------------|-------------0------------|--0--1------------------1--|-------1---------------0--|--2-----2-----------0-2----|-------------------0-2----|--2--------2-----2---------|----------2-----2---------|---------------------------|--3-----------------------|---------------------------|--------------------------|
-------------3-----------|-------------------------|--------------0------------|-------3-----------------|-------------0----1g3----|--0--1------------------1--|--0----------------2--0--|--0----------0----2g4----|--2-----2-----------0-2----|----------0-----0--------|-------2-----------------|--2--------2-----2---------|-------------------------|----------2--------------|---------------------------|-------------------------|-------------------------|---------------------------|
-------------0------------|-------------3----------------|-------1---------------0--|-------3----------------------|-------------------0-2----|--0----------------2p-0h-2p-0-|----------2-----2---------|----------0-----0-------------|--3-----------------------|------------------------------|--------------------------|------------------------------|
-------------------------|--------------0------------|-------------0----1g3----|--0--1------------------1--|--0----------0----2g4----|--2-----2-----------0-2----|-------2-----------------|--2--------2-----2---------|----------2--------------|---------------------------|-------------------------|---------------------------|
-------------0------------|-------------3-----------|-------------------------|-------1---------------0--|-------3-----------------|-------------0----1g3----|-------------------0-2----|--0----------------2--0--|--0----------0----2g4----|----------2-----2---------|----------0-----0--------|-------2-----------------|--3-----------------------|-------------------------|----------2--------------|--------------------------|-------------------------|-------------------------|
--------------0------------|-------------0------------|--0--1------------------1--|-------1---------------0--|--2-----2-----------0-2----|-------------------0-2----|--2--------2-----2---------|----------2-----2---------|---------------------------|--3-----------------------|---------------------------|--------------------------|
NH NH NH
-------------3----------------|-----------------------<>12----|-------3----------------------|---------------<>12------------|--0----------------2p-0h-2p-0-|--0----<>12--------------------|----------0-----0-------------|--2----------------------------|------------------------------|-------------------------------|------------------------------|-------------------------------|
PM PM PM PM
---------------------------|---------------------------|----------------------|---------------------------|---------------------------|----------------------|--2------2--2--------------|--5------5--5--------------|--2------2--2----7----|--2------2--2--------------|--5------5--5--------------|--2------2--2----7----|--0------0--0-----------5--|--3------3--3-----------5--|--0------0--0----5----|---------------0--0--3-----|---------------0--0--3-----|----------------------|
PM PM PM PM
---------------------------|---------------------------|---------------------------|---------------------------|--9------9--9--------------|--2------2--2--------------|--9------9--9--------------|--2------2--2--------------|--7------7--7--------3--2--|--0------0--0-----------5--|---------------0--0--------|---------------0--0--3-----|
PM PM PM PM
---------------------------|-----------------------|-------------------|---------------------------|-----------------------|-------------------|--5------5--5--------------|--2------2--2----------|-------------------|--5------5--5--------------|--2------2--2----------|--2----------------|--3------3--3-----------5--|--0------0--0----5--4--|--2----------------|---------------0--0--3-----|-----------------3--2--|--0----------------|
PM PM PM PM
---------------------------|---------------------------|----------------------|---------------------------|---------------------------|----------------------|--2------2--2--------------|--5------5--5--------------|--2------2--2----7----|--2------2--2--------------|--5------5--5--------------|--2------2--2----7----|--0------0--0-----------5--|--3------3--3-----------5--|--0------0--0----5----|---------------0--0--3-----|---------------0--0--3-----|----------------------|
PM PM PM PM
---------------------------|---------------------------|---------------------------|---------------------------|--9------9--9--------------|--2------2--2--------------|--9------9--9--------------|--2------2--2--------------|--7------7--7--------3--2--|--0------0--0-----------5--|---------------0--0--------|---------------0--0--3-----|
PM PM PM PM
---------------------------|-----------------------|-------------------|---------------------------|-----------------------|-------------------|--5------5--5--------------|--2------2--2----------|-------------------|--5------5--5--------------|--2------2--2----------|--2----------------|--3------3--3-----------5--|--0------0--0----5--4--|--2----------------|---------------0--0--3-----|-----------------3--2--|--0----------------|
W W W W -------------------|-------------------|-------------------|-------------------|-------------------|-------------------|-------------------|-------------------|-------------------|-------------------|-------------------|-------------------|--L----------------|--L----------------|--L----------------|--2----------------|--L----------------|--L----------------|--L----------------|--2----------------|--L----------------|--L----------------|--L----------------|--0----------------|
-------------------|-------------------|-------------------|-------------------|-------------------|-------------------|-------------------|-------------------|-------------------|-------------------|-------------------|-------------------|--L----------------|--L----------------|--L----------------|--2----------------|--L----------------|--L----------------|--L----------------|--2----------------|--L----------------|--L----------------|--L----------------|--0----------------|
-------------------|-------------------|-------------------|-------------------|-------------------|-------------------|-------------------|-------------------|-------------------|--L----------------|--L----------------|--L----------------|--L----------------|--L----------------|--L----------------|--L----------------|--L----------------|--L----------------|
----------------------|-------------------------|------------------------|----------------------|-------------------------|------------------------|--7--9----9--9--------|--7--9----9--12--11------|--L--7----7--7----------|--7--9----9--9--------|--7--9----9--12--11------|--L--7----7--7------9-9-|--5--7----7--7--------|--5--7----7--10---9------|--L--5----5--5----------|----------------------|-------------------------|------------------------|
-----------------------------|----------------------|-------------------------|-----------------------------|----------------------|-------------------------|--------------------------4--|--7--9----9--9--------|--7--9----9--12--11------|--9--7-7-7--5-5-5--4-4-4-----|--7--9----9--9--------|--7--9----9--12--11------|-----------------------------|--5--7----7--7--------|--5--7----7--10---9------|-----------------------------|----------------------|-------------------------|
------------------------|-----------------------------|----------------------|------------------------|-----------------------------|----------------------|--L--7----7--7----------|--------------------------4--|--7--9----9--9--------|--L--7----7--7------9-9-|--9--7-7-7--5-5-5--4-4-4-----|--7--9----9--9--------|--L--5----5--5----------|-----------------------------|--5--7----7--7--------|------------------------|-----------------------------|----------------------|
-------------------------|------------------------|-------------------------|------------------------|--7--9----9--12--11------|--L--7----7--7----------|--7--9----9--12--11------|--L--7----7--7------9-9-|--5--7----7--10---9------|--L--5----5--5----------|-------------------------|------------------------|
-----------------------------|----------------------|-------------------------|-----------------------------|----------------------|-------------------------|--------------------------4--|--7--9----9--9--------|--7--9----9--12--11------|--9--7-7-7--5-5-5--4-4-4-----|--7--9----9--9--------|--7--9----9--12--11------|-----------------------------|--5--7----7--7--------|--5--7----7--10---9------|-----------------------------|----------------------|-------------------------|
------------------------|-----------------------------|----------------------|------------------------|-----------------------------|----------------------|--L--7----7--7----------|--------------------------4--|--7--9----9--9--------|--L--7----7--7------9-9-|--9--7-7-7--5-5-5--4-4-4-----|--7--9----9--9--------|--L--5----5--5----------|-----------------------------|--5--7----7--7--------|------------------------|-----------------------------|----------------------|
-------------------------|------------------------|-------------------------|------------------------|--7--9----9--12--11------|--L--7----7--7----------|--7--9----9--12--11------|--L--7----7--7------9-9-|--5--7----7--10---9------|--L--5----5--5----------|-------------------------|------------------------|
-----------------------------|----------------------|-------------------------|-----------------------------|----------------------|-------------------------|--------------------------4--|--7--9----9--9--------|--7--9----9--12--11------|--9--7-7-7--5-5-5--4-4-4-----|--7--9----9--9--------|--7--9----9--12--11------|-----------------------------|--5--7----7--7--------|--5--7----7--10---9------|-----------------------------|----------------------|-------------------------|
------------------------|-----------------------------|-----------------------|------------------------|-----------------------------|-----------------------|--L--7----7--7----------|--------------------------4--|--------------9--------|--L--7----7--7------9-9-|--9--7-7-7--5-5-5--4-4-4-----|--------------9--------|--L--5----5--5----------|-----------------------------|--------------7--------|------------------------|-----------------------------|--0--0--0--0-----------|
--------------------------|-------------------------|--------------------------|-------------------------|--------------12--11------|--------------7----------|--------------12--11------|--------------7------9-9-|--------------10---9------|--------------5----------|--0--0--0--0--------------|--0--0--0--0-------------|
-----------------------------|-----------------------|-----------------------------|-----------------------|--------------------------4--|--------------9--------|--9--7-7-7--5-5-5--4-4-4-----|--------------9--------|-----------------------------|--------------7--------|-----------------------------|--0--0--0--0-----------|
--------------------------|-------------------------|--------------------------|-------------------------|--------------12--11------|--------------7----------|--------------12--11------|--------------7------9-9-|--------------10---9------|--------------5----------|--0--0--0--0--------------|--0--0--0--0-------------|
PM PM PM PM
-----------------------------|-----------------------|------------------------|-----------------------------|-----------------------|------------------------|--------------------------4--|-----------------------|------------------------|--9--7-7-7--5-5-5--4-4-4-----|---------4------4g5----|--L--4------2-----------|-----------------------------|--2--------------------|---------------5--4--0--|-----------------------------|-----------------------|------------------------|
PM PM PM PM
-----------------------|------------------------|-----------------------|-----------------------|------------------------|-----------------------|-----------------------|------------------------|-----------------------|---------4------4g5----|--L--7------5--4--2--4--|---------4------4g5----|--4--------------------|------------------------|--2--------------------|-----------------------|------------------------|-----------------------|
PM PM PM PM PM PM PM PM
------------------------|-----------------------|------------------------|------------------------|-----------------------|------------------------|------------------------|-----------------------|------------------------|--L--4------2-----------|---------4------4g5----|--L--7------5--4--2--4--|---------------5--4--0--|--4--------------------|------------------------|------------------------|-----------------------|------------------------|
PM PM PM PM
-----------------------|------------------------|-----------------------|-----------------------|------------------------|-----------------------|-----------------------|------------------------|-----------------------|---------4------4g5----|--L--4------2-----------|---------4------4g5----|--2--------------------|---------------5--4--0--|--4--------------------|-----------------------|------------------------|-----------------------|
PM PM PM PM PM PM PM PM
------------------------|-----------------------|------------------------|------------------------|-----------------------|------------------------|------------------------|-----------------------|------------------------|--L--7------5--4--2--4--|---------4------4g5----|--L--4------2-----------|------------------------|--2--------------------|---------------5--4--0--|------------------------|-----------------------|------------------------|
PM PM PM PM
-----------------------|------------------------|-----------------------|-----------------------|------------------------|-----------------------|-----------------------|------------------------|-----------------------|---------4------4g5----|--L--7------5--4--2--4--|---------4------4g5----|--4--------------------|------------------------|--2--------------------|-----------------------|------------------------|-----------------------|
PM PM PM PM PM PM PM PM
------------------------|-----------------------|------------------------|------------------------|-----------------------|------------------------|------------------------|-----------------------|------------------------|--L--4------2-----------|---------4------4g5----|--L--7------5--4--2--4--|---------------5--4--0--|--4--------------------|------------------------|------------------------|-----------------------|------------------------|
PM PM PM PM
-----------------------|------------------------|-----------------------|-----------------------|------------------------|-----------------------|-----------------------|------------------------|-----------------------|---------4------4g5----|--L--4------2-----------|---------4------4g5----|--2--------------------|---------------5--4--0--|--4--------------------|-----------------------|------------------------|-----------------------|
PM PM PM PM PM PM PM
------------------------|-----------------------|------------------------|------------------------|-----------------------|------------------------|------------------------|-----------------------|------------------------|--L--7------5--4--2--4--|---------4------4g5----|--L--4------2-----------|------------------------|--2--------------------|---------------5--4--0--|------------------------|-----------------------|------------------------|
PM PM PM PM
-----------------------|------------------------|-----------------------|-----------------------|------------------------|-----------------------|-----------------------|------------------------|-----------------------|---------4------4g5----|--L--7------5--4--2--4--|---------4------4g5----|--4--------------------|------------------------|--2--------------------|-----------------------|------------------------|-----------------------|
PM PM PM PM PM PM PM PM
------------------------|-----------------------|------------------------|------------------------|-----------------------|------------------------|------------------------|-----------------------|------------------------|--L--4------2-----------|---------4------4g5----|--L--7------5--4--2--4--|---------------5--4--0--|--4--------------------|------------------------|------------------------|-----------------------|------------------------|
PM PM PM PM
-----------------------|------------------------|-----------------------|-----------------------|------------------------|-----------------------|-----------------------|------------------------|-----------------------|---------4------4g5----|--L--4------2-----------|---------4------4g5----|--2--------------------|---------------5--4--0--|--4--------------------|-----------------------|------------------------|-----------------------|
PM PM PM PM PM PM PM PM
------------------------|-----------------------|------------------------|------------------------|-----------------------|------------------------|------------------------|-----------------------|------------------------|--L--7------5--4--2--4--|---------4------4g5----|--L--4------2-----------|------------------------|--2--------------------|---------------5--4--0--|------------------------|-----------------------|------------------------|
PM PM PM PM
-----------------------|------------------------|-----------------------|-----------------------|------------------------|-----------------------|-----------------------|------------------------|-----------------------|---------4------4g5----|--L--7------5--4--2--4--|---------4------4g5----|--4--------------------|------------------------|--2--------------------|-----------------------|------------------------|-----------------------|
PM PM PM PM PM PM PM PM
------------------------|-----------------------|------------------------|------------------------|-----------------------|------------------------|------------------------|-----------------------|------------------------|--L--4------2-----------|---------4------4g5----|--L--7------5--4--2--4--|---------------5--4--0--|--4--------------------|------------------------|------------------------|-----------------------|------------------------|
PM PM PM PM
-----------------------|------------------------|-----------------------|-----------------------|------------------------|-----------------------|-----------------------|------------------------|-----------------------|---------4------4g5----|--L--4------2-----------|---------4------4g5----|--2--------------------|---------------5--4--0--|--4--------------------|-----------------------|------------------------|-----------------------|
PM PM PM PM PM PM PM PM
------------------------|-----------------------|------------------------|------------------------|-----------------------|------------------------|------------------------|-----------------------|------------------------|--L--7------5--4--2--4--|---------4------4g5----|--L--4------2-----------|------------------------|--2--------------------|---------------5--4--0--|------------------------|-----------------------|------------------------|
PM PM PM PM
-----------------------|------------------------|-----------------------|-----------------------|------------------------|-----------------------|-----------------------|------------------------|-----------------------|---------4------4g5----|--L--7------5--4--2--4--|---------4------4g5----|--4--------------------|------------------------|--2--------------------|-----------------------|------------------------|-----------------------|
PM PM PM PM PM PM PM PM
------------------------|-----------------------|------------------------|------------------------|-----------------------|------------------------|------------------------|-----------------------|------------------------|--L--4------2-----------|---------4------4g5----|--L--7------5--4--2--4--|---------------5--4--0--|--4--------------------|------------------------|------------------------|-----------------------|------------------------|
PM PM PM PM
-----------------------|------------------------|-----------------------|-----------------------|------------------------|-----------------------|-----------------------|------------------------|-----------------------|---------4------4g5----|--L--4------2-----------|---------4------4g5----|--2--------------------|---------------5--4--0--|--4--------------------|-----------------------|------------------------|-----------------------|
PM PM PM PM PM PM PM PM
------------------------|-----------------------|------------------------|------------------------|-----------------------|------------------------|------------------------|-----------------------|------------------------|--L--7------5--4--2--4--|---------4------4g5----|--L--4------2-----------|------------------------|--2--------------------|---------------5--4--0--|------------------------|-----------------------|------------------------|
PM PM PM PM
-----------------------|------------------------|-------------------|-----------------------|------------------------|-------------------|-----------------------|------------------------|--4----------------|---------4------4g5----|--L--7------5--4--2--4--|--4----------------|--4--------------------|------------------------|--2----------------|-----------------------|------------------------|-------------------|
-------------------||-------------------||--L----------------||--L----------------||--L----------------||-------------------||
Metallica Kirk's part
E||-------|-------|-------|-------|-------|-------|-------|B||-------|-------|-------|-------|-------|-------|-------|G||-------|-------|-------|-------|-------|-------|-------|D||-------|-------|-------|-------|-------|-------|-------|A||-------|-------|-------|-------|-------|-------|-------|E||-------|-------|-------|-------|-------|-------|-------|
--------------------------|----------------------------|-----------------------7--|----------7-8-10~------8-10-|--------------------7-----|----------------------------|-----x--x-------/9--------|--9~------------------------|-----x--x-----------------|----------------------------|-----x--x-----------------|----------------------------|
----------------------------|-------------------------------|--12---10---8--8g10~--------|--L--12-10-8--7--7g8--7-----7--|----------------------------|-------------------------9-----|----------------------------|-------------------------------|----------------------------|-------------------------------|----------------------------|-------------------------------|
------------------------------|----------------------|------------------------|--7g8---7------7--------------|----------------------|---------------------8--|------------9-------9----7----|-------------------7--|--6~--------L--7--6-----|------------------------------|--7----9--------L-----|------------------------|------------------------------|----------------------|------------------------|------------------------------|----------------------|------------------------|
----------------------|--------------------------14-|--7~------------L--8--|--8g10~---------------/15----|----------------------|-----------------------------|----------------------|-----------------------------|----------------------|-----------------------------|----------------------|-----------------------------|
--19p-14-------15-14---------------------------|------------------------------|---------15----------15----17-15-14------------|------------------------------|------------16----------14----------16-14br----|---L------14-16---------------|-----------------------------------------------|----------------14------14-16-|-----------------------------------------------|------------------------------|-----------------------------------------------|------------------------------|
-----------------------------------------|------19--17--15(17)------15--15g17--|----------14--15--14h-15p-14-----14--15--|--14---------------------------------|--14--16---------------------16----------|-------------------------------------|-----------------------------------------|-------------------------------------|-----------------------------------------|-------------------------------------|-----------------------------------------|-------------------------------------|
--14-----------------14--14g15--|--14------------------14--14g15--|--------15----------------------|--------15-----------------------|------------16~-----------------|------------14br-----------------|--------------------------------|---------------------------------|--------------------------------|---------------------------------|--------------------------------|---------------------------------|
--14--------17~------15----|--14h-15p-14h----14h-15p-14~--------|--------15-----------------|------------------------------------|---------------------------|------------------------------------|---------------------------|------------------------------------|---------------------------|------------------------------------|---------------------------|------------------------------------|
----------------------------------|--------------12--13--15--13h-15p-13-----|----------------------------------|--12--13--15-------------------------15--|--------------------------12--14--|-----------------------------------------|--------------12--14--15----------|-----------------------------------------|--12--14--15----------------------|-----------------------------------------|----------------------------------|-----------------------------------------|
--17----------------|--L----------------|-------------------|-------|-------|--------------------|-------------------|-------------------|-------|-------|--------------------|-------------------|-------------------|-------|-------|--------------------|-------------------|-------------------|-------|-------|--------------------|-------------------|-------------------|-------|-------|--------------------|-------------------|-------------------|-------|-------|
-------|-------|-------|--------------------|-------------------|-------|-------|-------|--10----------------|--8----------------|-------|-------|-------|--------------------|-------------------|-------|-------|-------|--------------------|-------------------|-------|-------|-------|--------------------|-------------------|-------|-------|-------|--------------------|-------------------|
--10----------------|--7----------------|--------------------|--------------------|-------------------|--10----------------|--------------------|-------------------|--------------------|--------------------|-------------------|--------------------|--------------------|-------------------|--------------------|--------------------|-------------------|--------------------|
-------------------|--10----------------|--7----------------|--8----------------|--------------------|-------------------|-------------------|--------------------|-------------------|-------------------|--------------------|-------------------|-------------------|--------------------|-------------------|-------------------|--------------------|-------------------|
--------------------|-------------------|--10----------------|--10----------------|--8----------------|--------------------|--------------------|-------------------|--------------------|--------------------|-------------------|--------------------|--------------------|-------------------|--------------------|--------------------|-------------------|--------------------|
--7----------------|--------------------|-------------------|-------------------|--10----------------|--8----------------|-------------------|--------------------|-------------------|-------------------|--------------------|-------------------|-------------------|--------------------|-------------------|-------------------|--------------------|-------------------|
PM PM PM PM PM PM PM PM PM
--10----------------|--------------------------|---------------------------|--------------------|--------------------------|---------------------------|--------------------|--------------------------|--2------2--2--------------|--------------------|--------------------------|--2------2--2--------------|--------------------|--2--2--2--2--2--2--2--2--|--0------0--0-----------5--|--------------------|--0--0--0--0--0--0--0--0--|---------------0--0--3-----|
PM PM PM PM
---------------------------|----------------------|---------------------------|---------------------------|----------------------|---------------------------|--5------5--5--------------|--2------2--2----7----|--9------9--9--------------|--5------5--5--------------|--2------2--2----7----|--9------9--9--------------|--3------3--3-----------5--|--0------0--0----5----|--7------7--7--------3--2--|---------------0--0--3-----|----------------------|---------------0--0--------|
PM PM PM PM PM PM
---------------------------|---------------------------|-----------------------|---------------------------|---------------------------|-----------------------|--2------2--2--------------|--5------5--5--------------|--2------2--2----------|--2------2--2--------------|--5------5--5--------------|--2------2--2----------|--0------0--0-----------5--|--3------3--3-----------5--|--0------0--0----5--4--|---------------0--0--3-----|---------------0--0--3-----|-----------------3--2--|
PM PM PM PM
-------------------|---------------------------|---------------------------|-------------------|---------------------------|---------------------------|-------------------|--2------2--2--------------|--5------5--5--------------|--2----------------|--2------2--2--------------|--5------5--5--------------|--2----------------|--0------0--0-----------5--|--3------3--3-----------5--|--0----------------|---------------0--0--3-----|---------------0--0--3-----|
PM PM PM PM
----------------------|---------------------------|---------------------------|----------------------|---------------------------|---------------------------|--2------2--2----7----|--9------9--9--------------|--2------2--2--------------|--2------2--2----7----|--9------9--9--------------|--2------2--2--------------|--0------0--0----5----|--7------7--7--------3--2--|--0------0--0-----------5--|----------------------|---------------0--0--------|---------------0--0--3-----|
PM PM PM PM
---------------------------|-----------------------|-------------------|---------------------------|-----------------------|-------------------|--5------5--5--------------|--2------2--2----------|-------------------|--5------5--5--------------|--2------2--2----------|--2----------------|--3------3--3-----------5--|--0------0--0----5--4--|--2----------------|---------------0--0--3-----|-----------------3--2--|--0----------------|
--------------------------|------------------------------|--/10~------------10--12--|--13~------13s--15---13---12--|--------------------------|------------------------------|--------------------------|------------------------------|--------------------------|------------------------------|--------------------------|------------------------------|
--------------------------|----------------------------|--------------------------|----------------------------|--12~------------12h--14--|--9--------9h--11--11h--12--|--------------------------|----------------------------|--------------------------|----------------------------|--------------------------|----------------------------|
-------------------------|-----------------------------|---------------------12--|--13~------13--15br------13--|--14~------------14------|-----------------------------|-------------------------|-----------------------------|-------------------------|-----------------------------|-------------------------|-----------------------------|
-------15-------15-------15-------15--|---------------------|--15b------15b------15b------15b------|--15~----------------|--------------------------------------|---------------------|--------------------------------------|---------------------|--------------------------------------|---------------------|--------------------------------------|---------------------|
--------------------|-------------------|--10----------------|--10----------------|--8----------------|--------------------|--------------------|-------------------|--------------------|--------------------|-------------------|--------------------|--------------------|-------------------|--------------------|--------------------|-------------------|--------------------|
--7----------------|--------------------|-------------------|-------------------|--10----------------|--8----------------|-------------------|--------------------|-------------------|-------------------|--------------------|-------------------|-------------------|--------------------|-------------------|-------------------|--------------------|-------------------|
--10----------------|--7----------------|--------------------|--------------------|-------------------|--10----------------|--------------------|-------------------|--------------------|--------------------|-------------------|--------------------|--------------------|-------------------|--------------------|--------------------|-------------------|--------------------|
-------------------|--10----------------|--7----------------|--8----------------|--------------------|-------------------|-------------------|--------------------|-------------------|-------------------|--------------------|-------------------|-------------------|--------------------|-------------------|-------------------|--------------------|-------------------|
--------------------|-------------------|--10----------------|--10----------------|--8----------------|--------------------|--------------------|-------------------|--------------------|--------------------|-------------------|--------------------|--------------------|-------------------|--------------------|--------------------|-------------------|--------------------|
PM PM PM PM PM PM PM PM PM
--------------------------|---------------------------|--------------------------|---------------------------|--------------------------|--2------2--2--------------|--------------------------|--2------2--2--------------|--2--2--2--2--2--2--2--2--|--0------0--0-----------5--|--0--0--0--0--0--0--0--0--|---------------0--0--3-----|
PM PM PM PM
---------------------------|----------------------|---------------------------|---------------------------|----------------------|---------------------------|--5------5--5--------------|--2------2--2----7----|--9------9--9--------------|--5------5--5--------------|--2------2--2----7----|--9------9--9--------------|--3------3--3-----------5--|--0------0--0----5----|--7------7--7--------3--2--|---------------0--0--3-----|----------------------|---------------0--0--------|
PM PM PM PM PM PM
---------------------------|---------------------------|-----------------------|---------------------------|---------------------------|-----------------------|--2------2--2--------------|--5------5--5--------------|--2------2--2----------|--2------2--2--------------|--5------5--5--------------|--2------2--2----------|--0------0--0-----------5--|--3------3--3-----------5--|--0------0--0----5--4--|---------------0--0--3-----|---------------0--0--3-----|-----------------3--2--|
PM PM PM PM
-------------------|---------------------------|---------------------------|-------------------|---------------------------|---------------------------|-------------------|--2------2--2--------------|--5------5--5--------------|--2----------------|--2------2--2--------------|--5------5--5--------------|--2----------------|--0------0--0-----------5--|--3------3--3-----------5--|--0----------------|---------------0--0--3-----|---------------0--0--3-----|
PM PM PM PM
----------------------|---------------------------|---------------------------|----------------------|---------------------------|---------------------------|--2------2--2----7----|--9------9--9--------------|--2------2--2--------------|--2------2--2----7----|--9------9--9--------------|--2------2--2--------------|--0------0--0----5----|--7------7--7--------3--2--|--0------0--0-----------5--|----------------------|---------------0--0--------|---------------0--0--3-----|
PM PM PM PM
---------------------------|-----------------------|-------------------|---------------------------|-----------------------|-------------------|--5------5--5--------------|--2------2--2----------|-------------------|--5------5--5--------------|--2------2--2----------|--2----------------|--3------3--3-----------5--|--0------0--0----5--4--|--2----------------|---------------0--0--3-----|-----------------3--2--|--0----------------|
-------------------|-------------------|-------------------|-------------------|-------------------|-------------------|-------------------|-------------------|-------------------|--L----------------|--L----------------|--L----------------|--L----------------|--L----------------|--L----------------|--L----------------|--L----------------|--L----------------|
----------------------|-------------------------|------------------------|----------------------|-------------------------|------------------------|--7--9----9--9--------|--7--9----9--12--11------|--L--7----7--7----------|--7--9----9--9--------|--7--9----9--12--11------|--L--7----7--7------9-9-|--5--7----7--7--------|--5--7----7--10---9------|--L--5----5--5----------|----------------------|-------------------------|------------------------|
-----------------------------|----------------------|-------------------------|-----------------------------|----------------------|-------------------------|--------------------------4--|--7--9----9--9--------|--7--9----9--12--11------|--9--7-7-7--5-5-5--4-4-4-----|--7--9----9--9--------|--7--9----9--12--11------|-----------------------------|--5--7----7--7--------|--5--7----7--10---9------|-----------------------------|----------------------|-------------------------|
------------------------|-----------------------------|----------------------|------------------------|-----------------------------|----------------------|--L--7----7--7----------|--------------------------4--|--7--9----9--9--------|--L--7----7--7------9-9-|--9--7-7-7--5-5-5--4-4-4-----|--7--9----9--9--------|--L--5----5--5----------|-----------------------------|--5--7----7--7--------|------------------------|-----------------------------|----------------------|
-------------------------|------------------------|-------------------------|------------------------|--7--9----9--12--11------|--L--7----7--7----------|--7--9----9--12--11------|--L--7----7--7------9-9-|--5--7----7--10---9------|--L--5----5--5----------|-------------------------|------------------------|
-----------------------------|----------------------|-------------------------|-----------------------------|----------------------|-------------------------|--------------------------4--|--7--9----9--9--------|--7--9----9--12--11------|--9--7-7-7--5-5-5--4-4-4-----|--7--9----9--9--------|--7--9----9--12--11------|-----------------------------|--5--7----7--7--------|--5--7----7--10---9------|-----------------------------|----------------------|-------------------------|
------------------------|-----------------------------|----------------------|------------------------|-----------------------------|----------------------|--L--7----7--7----------|--------------------------4--|----------------------|--L--7----7--7------9-9-|--9--7-7-7--5-5-5--4-4-4-----|--4--5----5--5--------|--L--5----5--5----------|-----------------------------|----------------------|------------------------|-----------------------------|----------------------|
-----------------------|------------------------|-----------------------------|-----------------------|------------------------|-----------------------------|-------------4--2------|--L-----------------4-4-|--4--2-2-2----------------4--|--4--5----5------------|-----4----4--4----------|------------5-5-5--4-4-4-----|-----------------------|------------------------|-----------------------------|-----------------------|------------------------|-----------------------------|
----------------------|-----------------------|------------------------|----------------------|-----------------------|------------------------|----------------------|-------------4--2------|--L-----------------4-4-|--4--5----5--5--------|--4--5----5------------|-----4----4--4----------|----------------------|-----------------------|------------------------|----------------------|-----------------------|------------------------|
-----------------------------|----------------------|-------------------------|-----------------------------|----------------------|-------------------------|--4--2-2-2----------------4--|--7--9----9--9--------|--7--9----9--12--11------|------------5-5-5--4-4-4-----|--7--9----9--9--------|--7--9----9--12--11------|-----------------------------|--5--7----7--7--------|--5--7----7--10---9------|-----------------------------|----------------------|-------------------------|
------------------------|-----------------------------|----------------------|------------------------|-----------------------------|----------------------|--L--7----7--7----------|--------------------------4--|--7--9----9--9--------|--L--7----7--7------9-9-|--9--7-7-7--5-5-5--4-4-4-----|--7--9----9--9--------|--L--5----5--5----------|-----------------------------|--5--7----7--7--------|------------------------|-----------------------------|----------------------|
-------------------------|------------------------|-------------------------|------------------------|--7--9----9--12--11------|--L--7----7--7----------|--7--9----9--12--11------|--L--7----7--7------9-9-|--5--7----7--10---9------|--L--5----5--5----------|-------------------------|------------------------|
-----------------------------|-----------------------|-----------------------------|-----------------------|--------------------------4--|--------------9--------|--9--7-7-7--5-5-5--4-4-4-----|--------------9--------|-----------------------------|--------------7--------|-----------------------------|--0--0--0--0-----------|
--------------------------|-------------------------|--------------------------|-------------------------|--------------12--11------|--------------7----------|--------------12--11------|--------------7------9-9-|--------------10---9------|--------------5----------|--0--0--0--0--------------|--0--0--0--0-------------|
-----------------------------|-----------------------|-----------------------------|-----------------------|--------------------------4--|--------------9--------|--9--7-7-7--5-5-5--4-4-4-----|--------------9--------|-----------------------------|--------------7--------|-----------------------------|--0--0--0--0-----------|
--------------------------|-------------------------|--------------------------|-------------------------|--------------12--11------|--------------7----------|--------------12--11------|--------------7------9-9-|--------------10---9------|--------------5----------|--0--0--0--0--------------|--0--0--0--0-------------|
-----------------------------|---------------------|------------------------|-----------------------------|---------------------|------------------------|--------------------------4--|---------------------|------------------------|--9--7-7-7--5-5-5--4-4-4-----|----------------2----|--L---------------------|-----------------------------|--2------5-----------|-----5------4--2--------|-----------------------------|---------------------|------------------5--2--|
---------------------|------------------------|---------------------|---------------------|------------------------|---------------------|---------------------|------------------------|---------------------|---------------------|------------------------|----------------2----|---------4------7----|--L--5------4--2--------|--2------5-----------|--5------------------|------------------5--2--|---------------------|
------------------------|---------------------|------------------------|------------------------|---------------------|------------------------|------------------------|---------------------|------------------------|--L---------------------|---------------------|------------------------|-----5------4--2--------|---------4------7----|--L--5------4--2--------|------------------5--2--|--5------------------|------------------5--2--|
---------------------|-------------------------|------------------------|---------------------|-------------------------|------------------------|---------------------|----------------------7--|--9b------9b------9b----|----------------2----|--L---------/9--9--9-----|------------------------|--2------5-----------|-----5-------------------|------------------------|---------------------|-------------------------|------------------------|
--------------------------|------------------------------------|-----------------------6--|--7g8----7---------7g8----7---------|--L--9br----7--9----9-----|--------------7----------------7----|--------------------------|------------------------------------|--------------------------|------------------------------------|--------------------------|------------------------------------|
------------------------------------|----------------------------------------|--7g8----7---------8g10--10--8--10--|--10g12----10----8----8g10----8----7----|--------------7---------------------|----------------------------------------|------------------------------------|----------------------------------------|------------------------------------|----------------------------------------|------------------------------------|----------------------------------------|
----------------------------------|--------------------------|--7g8----7---------7--------------|--------------------------|--------------9---------9----7----|--------------------7--9--|----------------------------------|--7----7g9--9----9--------|----------------------------------|--------------------------|----------------------------------|--------------------------|
----------------------------|----7---------7---------7--------7------|----------------------------|--7---10-7------10-7------10-7-----10-7-|--9br---7-9--7--L-----7--9--|-----------9b--------9b--------9--------|-------------------9--------|----------------------------------------|----------------------------|----------------------------------------|----------------------------|----------------------------------------|
-----7---------7---------7--------7------|-------10-7------10-7------10-7-----10-7-|--9b--------9b--------9b--------9--------|-----------------------------------------|-----------------------------------------|--------------------------------------
Tap to rate this tab
 
# A B C D E F G H I J K L M N O P Q R S T U V W X Y Z