Metallica - Wherever I May Roam tab

Wherever I May Roam
Band: Metallica
Album: Metallica (or the "Black Album")
Tabbed by: DickOfDestiny

~  - Let ring
/  - Slide to required note
h  - Hammer on
p  - Pull off
b  - Bend to required pith
r  - Bend Return to required pitch

Standard tuning (EADGBe)

Intro|----------------------------------------------------------------------||----------------------------------------------------------------------||------9-9/10-9---------12-12/14-10-----9-----9-9/10-9-----------------||----------------------------------------------------------------------| |------7-7/8--7---------10-10/12-8------7-----7-7/8--7-----------------||0----------------0---------------------0------------------------------|
|----------------------------------------------------------------------||----------------------------------------------------------------------||------9-9/10-9---------12-12/14-10-----9-----9-9/10-9-----------------||----------------------------------------------------------------------| |------7-7/8--7---------10-10/12-8------7-----7-7/8--7-----------------||0----------------0---------------------0------------------------------|
|----------------------------------------------------------------------||----------------------------------------------------------------------||------9-9/10-9---------12-12/14-14\10---9-----------------------------||----------------------------------------------------------------------||------7-7/8--7---------10-10/12-12\8----7-----------------------------||0----------------0----------------------0-----------------------5/20\-|
|----------------------------------------------------------------------------||----------------------------------------------------------------------------||----------------------------------------------------------------------------||--------------------5-5/7-------------------------------------------5-5/7---||-----7-7h8-7~~~------------8----7---7-7h8-7~~~--------7-7h8-7~~~------------||0-------------------------------0-----------------0-------------------------|
-------------------|-------------------|-------------------|-------------------|8-----7--7-7h8-7~~~|------0------------|
|------------------------||------------------------||------------------------||------------------------||(7)-----7---8---9---10\-||--------5---6---7---8-\-|
Rhy Fig I|---------------------------------------------------------------------------||---------------------------------------------------------------------------| |---------------------------------------------------------------------------||----------------------------5-5/7------------------------------------------||2------7-7h8-7h8p7h8p7--7----------8---7----7-7h8-7h8p7h8p7--7---8---9---10||0----0------------------0--0-----------0---0-----------------5---6---7---8-| . . .
|---------------------------------------------------------------------------||---------------------------------------------------------------------------| |---------------------------------------------------------------------------||----------------------------5-5/7------------------------------------------||2------7-7h8-7h8p7h8p7--7----------8---7----7-7h8-7h8p7h8p7--7---8---9---10||0----0------------------0--0-----------0---0-----------------5---6---7---8-| . . .
Rhy fig II|---------------------------------------------------------------------------||---------------------------------------------------------------------------||---------------------------------------------------------------------------||----------------------------5-5/7-----9------------------------------------||5-6-7-8-7h8-7h8p7h8p7-7-----------8---7-----7-7h8-7h8p7h8p7-7---8---9---10-||----------------------0---0-----------0---0-----------------5---6---7---8--| . . . . . .
|---------------------------------------------------------------------------||---------------------------------------------------------------------------||---------------------------------------------------------------------------||---------2-----------------------------------3-----------------------------||5-6-7-8--2---------------------------------3-------------------------------||---------0-------------------------------1---------------------------------| . . . . . .
|----------------------------------------------------------------||----------------------------------------------------------------||------0---------------------------------------------------------||----2-------------------------------3---------------------------||--2-------------------------------3-----------------------------||0-------------------------------1-------------------------3/10\-| . . . . .
|------------------------------------------------------------------||------------------------------------------------------------------||---------------------------------3~~------------------------------||2~~------------------------------3~~------------------------------||2~~------------------------------1~~------------------------------||0~~---------------------------------------------------------------|
|------------------------------------------------------------------||------------------------------------------------------------------||2~~------------------------------3~~------------------------------||2~~------------------------------3~~------------------------------||0~~------------------------------1~~------------------------------||------------------------------------------------------------------|
|--------0---------------0---------------------------------------||------------0---------------0-----------3---------------3-------||--------------------------------------------3---------------3---||-----------------------------------3---------------3------------||----2---------------2-----------1---------------1---------------||0---------------0-----------------------------------------------|
|----------------------------------------------------------------||--------3---------------3---------------3---------------3-------||------------3---------------3---------------3---------------3---||------------------------------------3---------------3-----------||----1---------------1-----------1---------------1---------------||3---------------3-----------------------------------------------|
Pre - Chorus|---------------------------------------------------------------------------|---------------------------------------------------------------------------|---------------------------------------------------------------------------|--------------------------------------------5-5/7-----9--------------------|1---1---2---3---5-6-7-8-7h8-7h8p7h8p7-7-----------8---7-----7-7h8-7h8p7h8p7|--------------------------------------0---0-----------0---0---------------- . . . . . .
------------------|------------------|------------------|------------------|-7---8---9---10\--|-5---6---7---9-\--|
|---------------------------------------------------------------|---------------------------------------------------------------|---------------------------------------------------------------|3---3-------3--------3---2h3-2h3p2h3p2--2---2-------2-------2--|3---3-------3--------3------------------2---2-------2-------2--|1---1---1-1-1----1-1-1------------------0---0---0-0-0---0-0-0-- . . . . . . . .
------------------------------------------------------|------------------------------------------------------|----------------3---3-------3-------3-----------------|-2h3-2h3p2h3p2--3---3-------3-------3---2h3-2h3p2h3p2-|----------------1---1---1-1-1---1-1-1-----------------|------------------------------------------------------| . . . .
Chorus|-----------------------------------------------------------------------||-----------------------------------------------------------------------||-2~~-------------------------------------------------------------------||-2~~--------------------------------5~~--------------------------------||-0~~--------------------------------5~~--------------------------------||------------------------------------3~~--------------------------------|
Rhy fig I|---------------------------------------------------------------------------||---------------------------------------------------------------------------| |---------------------------------------------------------------------------||----------------------------5-5/7------------------------------------------||2------7-7h8-7h8p7h8p7--7----------8---7----7-7h8-7h8p7h8p7--7---8---9---10||0----0------------------0--0-----------0---0-----------------5---6---7---8-| . . .
|---------------------------------------------------------------------------||---------------------------------------------------------------------------| |---------------------------------------------------------------------------||----------------------------5-5/7------------------------------------------||2------7-7h8-7h8p7h8p7--7----------8---7----7-7h8-7h8p7h8p7--7---8---9---10||0----0------------------0--0-----------0---0-----------------5---6---7---8-| . . .
|---------|-----------------------------------------------------------------||---------|-----------------------------------------------------------------||---------|-----------------------------------------------------------------||---------|-2-----------------------------------3---------------------------||-5-6-7-8-|-2---------------------------------3-----------------------------||---------|-0-------------------------------1--------------------------3/10\| . . . . . .
|------------------------------------------------------------------||------------------------------------------------------------------||---------------------------------3~~------------------------------||2~~------------------------------3~~------------------------------||2~~------------------------------1~~------------------------------||0~~---------------------------------------------------------------|
|------------------------------------------------------------------||------------------------------------------------------------------||2~~------------------------------3~~------------------------------||2~~------------------------------3~~------------------------------||0~~------------------------------1~~------------------------------||------------------------------------------------------------------|
|--------0---------------0---------------------------------------||------------0---------------0-----------3---------------3-------||--------------------------------------------3---------------3---||-----------------------------------3---------------3------------||----2---------------2-----------1---------------1---------------||0---------------0-----------------------------------------------|
|----------------------------------------------------------------||--------3---------------3---------------3---------------3-------||------------3---------------3---------------3---------------3---||------------------------------------3---------------3-----------||----1---------------1-----------1---------------1---------------||3---------------3-----------------------------------------------|
Pre - Chorus|---------------------------------------------------------------------------|---------------------------------------------------------------------------|---------------------------------------------------------------------------|--------------------------------------------5-5/7-----9--------------------|1---1---2---3---5-6-7-8-7h8-7h8p7h8p7-7-----------8---7-----7-7h8-7h8p7h8p7|--------------------------------------0---0-----------0---0---------------- . . . . . .
------------------|------------------|------------------|------------------|-7---8---9---10\--|-5---6---7---9-\--|
|---------------------------------------------------------------|---------------------------------------------------------------|---------------------------------------------------------------|3---3-------3--------3---2h3-2h3p2h3p2--2---2-------2-------2--|3---3-------3--------3------------------2---2-------2-------2--|1---1---1-1-1----1-1-1------------------0---0---0-0-0---0-0-0-- . . . . . . . .
------------------------------------------------------|------------------------------------------------------|----------------3---3-------3-------3-----------------|-2h3-2h3p2h3p2--3---3-------3-------3---2h3-2h3p2h3p2-|----------------1---1---1-1-1---1-1-1-----------------|------------------------------------------------------| . . . .
Chorus|-----------------------------------------------------------------------||-----------------------------------------------------------------------||-2~~-------------------------------------------------------------------||-2~~--------------------------------5~~--------------------------------||-0~~--------------------------------5~~--------------------------------||------------------------------------3~~--------------------------------|
Interlude|------------------------------------------------||------------------------------------------------||--------------------------------------------9~\-||-----------------------6h7-6h7p6h7p6--9-10------||2----/7-7h8-7h8p7h8p7---------------------------||0---0-------------------------------------------| .
|------------------------------------------||------------------------------------------||--------------------------8--9--11/12--8~\||--------------6--7--9--10-----------------||2---2---7--8------------------------------||0---0-0-----------------------------------| . . . . . . . . .
|------------------------------------------------||------------------------------------------------||--------------------------------------------9~\-||-----------------------6h7-6h7p6h7p6--9-10------||2----/7-7h8-7h8p7h8p7---------------------------||0---0-------------------------------------------| .
|------------------------------------------||------------------------------------------||--------------------------8--9--11/12--8~\||--------------6--7--9--10-----------------||2---2---7--8------------------------------||0---0-0-----------------------------------| . . . . . . . . .
Pre - Chorus|---------------------------------------------------------------|---------------------------------------------------------------|---------------------------------------------------------------|3---3-------3--------3---2h3-2h3p2h3p2--2---2-------2-------2--|3---3-------3--------3------------------2---2-------2-------2--|1---1---1-1-1----1-1-1------------------0---0---0-0-0---0-0-0-- . . . . . . . .
------------------------------------------------------|------------------------------------------------------|-2h3-2h3p2h3p2--3---3-------3-------3-----------------|----------------3---3-------3-------3---2h3-2h3p2h3p2-|----------------1---1---1-1-1---1-1-1-----------------|------------------------------------------------------| . . . .
Chorus|-----------------------------------------------------------------------||-----------------------------------------------------------------------||-2~~-------------------------------------------------------------------||-2~~--------------------------------5~~--------------------------------||-0~~--------------------------------5~~--------------------------------||------------------------------------3~~--------------------------------|
Solo/wah|-12-\----------------------------------------------------------------||-12-\-----------------------------9-12p9-9-12p9-9-10-9---------------||-------9~~~-----9--10b11r10-11b13-----------------------10p9-10p9----||------------10----------------------------------------------------10-||---------------------------------------------------------------------||---------------------------------------------------------------------|
|-12-\------------------------------------------||-12-\---------------------15b17r15---15b17vvv--||--------9~~~----9--9b10------------------------||-------------10--------------------------------||-----------------------------------------------||-----------------------------------------------|
|-17p16-17p16p13p12-17p16-17p16p13p12-17p16-17p16p13p12-|-------------------------------------------------------|-------------------------------------------------------|-------------------------------------------------------|-------------------------------------------------------|-------------------------------------------------------
17p16-17p16p13p12-17p16-17p16p13p12-|------------------------------------|------------------------------------|------------------------------------|------------------------------------|------------------------------------|
|-17p16-17p16p13p12-17p16-17p16p13p12-17p16-17p16p13p12----||----------------------------------------------------------||----------------------------------------------------------||----------------------------------------------------------||----------------------------------------------------------||----------------------------------------------------------|
|----------------------------------------------------------------------------|15p13p12-15p12-15p13p12-15p12-15p12h17p15p12-12-15p12-17p15p12-12-15p13p12-1|----------------------------------------------------------------------------|----------------------------------------------------------------------------|----------------------------------------------------------------------------|----------------------------------------------------------------------------
---------------------|13p12----------------|-----14-13-14b16r14--| -------------------13| ---------------------| ---------------------|
|-------------------------------------------------16-17-17-17---16-------|-15b17r15--15b17~~~-15b17r15--12--15~~~~~~-16-17------------------18p17-|------------------------------------------------------------------------|------------------------------------------------------------------------|------------------------------------------------------------------------|------------------------------------------------------------------------
-------------------|17~~17-18p17-12~~~-|-------------------|-------------------|-------------------|-------------------|
|------------------------------------------------------------17/19--19~~~~~~||-12-12-12--12--12/15--15-15~~~~~~--15-15-12-13--14-/16-/18--17/19--19~~~~~~||-12-12-12--12--12/15--15-15~~~~~~--15-15-12-13--14-/16-/18--17/19--19~~~~~~||-12-12-12--12--12/15--15-15~~~~~~------------------------------------------||---------------------------------------------------------------------------||---------------------------------------------------------------------------|
|-22b24r22--22b24r22~~~~~~~~-------------------------||----------------------------------------------------||----------------------------------------------------||----------------------------------------------------||----------------------------------------------------||----------------------------------------------------|
|-19p16-------19-19p16-------19-19p16-------19-19p16-16-------16-19p16-16\13|------17-17----------17-17----------17-17-------------17-17----------------|---------------------------------------------------------------------------|---------------------------------------------------------------------------|---------------------------------------------------------------------------|---------------------------------------------------------------------------
13-13h16p13-12-12--|-------------------|-------------------|-------------------|-------------------|-------------------|
|-13p12----12--------------------------------------------||-------15----15p13-13-13-13h15p13~~~~~~~~~~-------------||--------------------------------------------------------||--------------------------------------------------------||--------------------------------------------------------||--------------------------------------------------------|
Pre - Chorus|---------------------------------------------------------------|---------------------------------------------------------------|---------------------------------------------------------------|3---3-------3--------3---2h3-2h3p2h3p2--2---2-------2-------2--|3---3-------3--------3------------------2---2-------2-------2--|1---1---1-1-1----1-1-1------------------0---0---0-0-0---0-0-0-- . . . . . . . .
------------------------------------------------------|------------------------------------------------------|-2h3-2h3p2h3p2--3---3-------3-------3-----------------|----------------3---3-------3-------3---2h3-2h3p2h3p2-|----------------1---1---1-1-1---1-1-1-----------------|------------------------------------------------------| . . . .
Chorus|-----------------------------------------------------------------------||-----------------------------------------------------------------------||-2~~-------------------------------------------------------------------||-2~~--------------------------------5~~--------------------------------||-0~~--------------------------------5~~--------------------------------||------------------------------------3~~--------------------------------|
|-----------------------------------------------------------------------||-----------------------------------------------------------------------||-5~~--------------------------------4~~---------------3~~--------------||-5~~--------------------------------4~~---------------3~~--------------||-3~~--------------------------------2~~---------------1~~--------------||-----------------------------------------------------------------------|
Rhy Fig I|---------------------------------------------------------------------------||---------------------------------------------------------------------------| |---------------------------------------------------------------------------||----------------------------5-5/7------------------------------------------||2------7-7h8-7h8p7h8p7--7----------8---7----7-7h8-7h8p7h8p7--7---8---9---10||0----0------------------0--0-----------0---0-----------------5---6---7---8-| . . .
Rhy Fig II|---------------------------------------------------------------------------||---------------------------------------------------------------------------||---------------------------------------------------------------------------||----------------------------5-5/7-----9------------------------------------||5-6-7-8-7h8-7h8p7h8p7-7-----------8---7-----7-7h8-7h8p7h8p7-7---8---9---10-||----------------------0---0-----------0---0-----------------5---6---7---8--| . . . . . .
|---------------------------------------------------------------------------||---------------------------------------------------------------------------||---------------------------------------------------------------------------||----------------------------5-5/7-----9------------------------------------||5-6-7-8-7h8-7h8p7h8p7-7-----------8---7-----7-7h8-7h8p7h8p7-7---8---9---10-||----------------------0---0-----------0---0-----------------5---6---7---8--| . . . . . .
Outro Solo/wah|--16--16p13p12--16p13p12--16----12--16p13p12--16p13p12--||--------------------------------------------------------||--------------------------------------------------------||--------------------------------------------------------||--------------------------------------------------------||--------------------------------------------------------|
|--16p13p12--16--17p16p13p12--16p13p12--16p13p12--16--17p16--17p16p13p12-||------------------------------------------------------------------------||------------------------------------------------------------------------||------------------------------------------------------------------------||------------------------------------------------------------------------||------------------------------------------------------------------------|
|--13h16p13p12-12h13-12h13p12------12--13p12------12-----------------||------------------------------15-------------15------15p13------12--||------------------------------------------------------------15------||--------------------------------------------------------------------||--------------------------------------------------------------------||--------------------------------------------------------------------|
|----------------------------------------|-----------------------------||--13p12---------12~~--12----------------|--15b17----15b17----15b17----||---------14p13--------------14p13-14~~--|-----------------------------||----------------------------------------|-----------------------------||----------------------------------------|-----------------------------||----------------------------------------|-----------------------------|
|---------------------12-|-17p16-17p16p13p12-16p13p12-17p16-17p16p13p12-||-15b17----15b17r15~~----|----------------------------------------------||------------------------|----------------------------------------------||------------------------|----------------------------------------------||------------------------|----------------------------------------------||------------------------|----------------------------------------------|
|16p13p12--17p16--17p16p13p12--16p13p12--16p13p12--12----12~~--------||-------------------------------------------------------------13p12--||--------------------------------------------------------------------||--------------------------------------------------------------------||--------------------------------------------------------------------||--------------------------------------------------------------------|
|--------------------------------------------------------||--13p12-------------------12--13p12-----------------12--||---------14p13--14----14-------------14p13--14--14------||--------------------------------------------------------||--------------------------------------------------------||--------------------------------------------------------|
|----------------------------------------------------------||--13p12-------------------12--13p12-------------------12--||---------14p13--14----14-------------14p13--14----14------||----------------------------------------------------------||----------------------------------------------------------||----------------------------------------------------------|
|--------------------------------------------------------------||--13p12------13p12------12--13--13p12------12-------------12--||---------14---------14-----------------14------14p13--14------||--------------------------------------------------------------||--------------------------------------------------------------||--------------------------------------------------------------|
|----------------------------------------------||--15pb17~~~--15pb17~~~--15pb17~~~--15pb17~~~--||----------------------------------------------||----------------------------------------------||----------------------------------------------||----------------------------------------------|
|--16-16-16-16-16-16-16-16-16-16-16-16-17-17-17-17-17-17-17-17-17-17-17-17--||---------------------------------------------------------------------------||---------------------------------------------------------------------------||---------------------------------------------------------------------------||---------------------------------------------------------------------------||---------------------------------------------------------------------------|
|--19-19-19-19-19-19-19-19-19-19-19-19-22-22-22-22-22-22-22-22-22-22-22-19--||---------------------------------------------------------------------------||---------------------------------------------------------------------------||---------------------------------------------------------------------------||---------------------------------------------------------------------------||---------------------------------------------------------------------------|
|--22b24----22b24----22b24----22b24----|--22b24----22b24~~-||--------------------------------------|-------------------||--------------------------------------|-------------------||--------------------------------------|-------------------||--------------------------------------|-------------------||--------------------------------------|-------------------|
|------------------12------------------12---------------||--9h10--12--9h10------9h10--12--9h10------9h10--12--9h-||-------------------------------------------------------||-------------------------------------------------------||-------------------------------------------------------||-------------------------------------------------------|
|------------12------------------12------------------||--10--9h10------9h10--12--9h10------9h10--12--9h10--||----------------------------------------------------||----------------------------------------------------||----------------------------------------------------||----------------------------------------------------|
|12-------------------------------------|-12~~~-12------12~~~--12------||----9h10-12-12p10-10--9h10-12-9h10p9---|----------9-10-----------9-10-||-------------------------------------9-|------------------------------||---------------------------------------|------------------------------||---------------------------------------|------------------------------||---------------------------------------|------------------------------|
|12--------------12--------------|-12----------------10~~~----12--13-||---9-10-12-9-10----9-10-12-9-10-|----9-10-12-10-12--------15--------||--------------------------------|-----------------------------------||--------------------------------|-----------------------------------||--------------------------------|-----------------------------------||--------------------------------|-----------------------------------|
|----16----13----12----12h13p12------12------------------||-------------------15-----------15------15--13--12--13--||--------------------------------------------------------||--------------------------------------------------------||--------------------------------------------------------||--------------------------------------------------------|
|-------------------------------------------------------12--||--13p12------------13p12---------13p12-------------12------||---------14p13h14---------14p13---------14p13--14----------||-----------------------------------------------------------||-----------------------------------------------------------||-----------------------------------------------------------|
|------------------------------------------------||------------------------13p12-------------------||--12---------12----------------14p13--14----12--||-------14p12------------------------------------||------------------------------------------------||------------------------------------------------|
|----------------------------------|------------------------------------||13p12------------13p12------------|-13p12---------13-------13p12----12-||-----14p13/\14p12-----14p13\/14p12|------14p13-14----14p13--------14---||------------\/---------------\/---|------------------------------------||----------------------------------|------------------------------------||----------------------------------|------------------------------------|
|--------12---------12---------12----------12---13-|-13--12--13-12-12-13-12-||-10h13------10h13------10h13-------10h13----------|------------------------||--------------------------------------------------|------------------------||--------------------------------------------------|------------------------||--------------------------------------------------|------------------------||--------------------------------------------------|------------------------|
|-12-13-12-13-13p16--12--13--16--16b17--16--17--19--16--20--17--21--18--22-||--------------------------------------------------------------------------||--------------------------------------------------------------------------||--------------------------------------------------------------------------||--------------------------------------------------------------------------||--------------------------------------------------------------------------|
|--22b24----22b24----22b24-r22-b24~~----------||---------------------------------------------||---------------------------------------------||---------------------------------------------||---------------------------------------------||---------------------------------------------|
Enjoy !
Tap to rate this tab
 
# A B C D E F G H I J K L M N O P Q R S T U V W X Y Z