Metallica - One Live tab

Band:Metallica
Song:One (kirk hammett version live)
Tuning: E A D G B E
Album: And Justice For All

Intro Solo---------------------------------------------------------------|------------------3-2-----3-2------3--3-2----------------------|---------2---4^--------4-------2-----------4-------------------|-----2h4-------------------------------------------------------|---------------------------------------------------------------|---------------------------------------------------------------|
---------------------------------------------------------------------|-----7h5---5h3---3h2---2p0-----------------2h3-----2h3h2-------------|----------------------------2--2/4----2h4------2h4-------2-2/4-------|---------------------------------------------------------------------|---------------------------------------------------------------------|---------------------------------------------------------------------|
------12/14---19-----17-15-14-15-------------------|--------------------------------15-----------------|---------------------------------------------------|---------------------------------------------------|---------------------------------------------------|---------------------------------------------------|
-----------------------------------------------------------------|-----------------------------------------------------------------|-----7p6-7-----9p7-9-------11p9--11----11/12---12---11-----------|-----------------------------------------------------------------|-----------------------------------------------------------------|-----------------------------------------------------------------|
-------------------------------------------------------------12--|----------------------------------12-------------12-14---15------| -----------11-12-14---------11-12-------------11-----------------| --------12---------------12---------------12---------------------| -----14---------------14---------------14------------------------| -----------------------------------------------------------------|
Verse---------------------------------------------|---------------------------------------------|---------------------------------------------|-----4-----0--0--4--0------4-----0--0--4--0--|--2-----2------------------------------------|------------------------3-----3--------------|
--------------------------------------------------------------------|--------------------------------------------------------------------|--------------------------------------------------------------------|-----4-----0--0-0-4-0-------4-----0-0--4--0------4-----0--0--4--0---|--2-----2-------------------------------------2-----2---------------|------------------------3-----3-------------------------------------|
-----------------------------------------------------------|-----------------------------------------------------------|--------------------0---(0)--------------------------------|-----4-----0--4--4----------4-----0--0--4--0---------------|--0-----0-----------------------------------------2----2---|-------------------------3-----3----------------0----2-----|
then----------------------------------------------------------------------|---------------------------------------------------0h3p0----0h3p0-----|--------------------------------0--7-----0----------------4--------0--|---------0-------------------7--------7-------------------------------|-----5------------7-------5-------------------------------------------|--3---------3--5------------------------------------------------------|
|-----------------------------------0------||--------------------------------0-----0---||---------0--10-----0---------0------------||-----10---------10--------9---------------||-/8--------------------7------------------||------------------------------------------|
-----------------------------------------------|----------------------------0h3p0----0h3p0-----|---------0--7-----0----------------4--------0--|------7--------7-------------------------------|---5-------------------------------------------|-----------------------------------------------|
-----------------------------------0---------|--------------------------------0-----0------|---------0--10-----0---------0---------------|-----10---------10--------9------------------|-/8--------------------7-----------------3---|---------------------------------------------|
Verse x2
Chorus----------------------------------------------------|----------------------------------------------------|-------2-4-2-------------2-----4-6-4-2--4---6---7---|-5-----2-4-2-5---4---5---2-----4-6-4-2--4---6---7---|-5-----0-2-0-5---4---5---0-----2-4-2-0--2---4---5~~~|-3-----------3---2---3------------------------------|
Bridge verse x2 chorus
classical solo----------------------------|----------------------|----------------------|-------------10p7-----7-----|-10-----10---8---7----|-7h8p7----------------|------------------7---------|--------------------9-|--------7-------------|----------------------------|----------------------|----------------------|-(5)------------------------|----------------------|----------------------|----------------------------|----------------------|----------------------|
-/10-8-7-----7---8-|---------17p14-----14-|-17---17-15--14---15p14--------|---------10--------|-8~~~~~---------15----|-------------------------------|-------------------|----------------------|-------------------------------|-------------------|----------------------|-------------------------------|-------------------|----------------------|-------------------------------|-------------------|----------------------|-------------------------------|
------------------15--17--|--19p17p15-19p17p15-19p17p15-14-15----14-------|-15------15--19-----------|-----------------------------------17----15----|--------------------------|-----------------------------------------------|--------------------------|-----------------------------------------------|--------------------------|-----------------------------------------------|--------------------------|-----------------------------------------------|
-----------------------------------------------------------|-------/8---8--8\\7------/13----13---13---13---12----------|-------/7---7--7--7------/12----12---12---12---12----------|-----------------------------------------------------------|-----------------------------------------------------------|-----------------------------------------------------------|
T T T T T T---20p17p13---20p17p13---20p17p13---20p17p13---20p17p13---20p17p13--------|--------------------------------------------------------------------------|--------------------------------------------------------------------------|--------------------------------------------------------------------------|--------------------------------------------------------------------------|--------------------------------------------------------------------------|[ T := tap using edge of pick ]
T T---20p12h13p12---20p12h13p12-|-----------------------------|-----------------------------|-----------------------------|-----------------------------|-----------------------------|
Chorus
then---------------------------------------------------------------|---------------------------------------------------------------|-------2-4-2-------------2-----4-6-4-2--4---6------------------|-5-----2-4-2-5---4---5---2-----4-6-4-2--4---6---5-7-9-7-5-4-5--|-5-----0-2-0-5---4---5---0-----2-4-2-0--2---4---5-7-9-7-5-4-5--|-3-----------3---2---3--------------------------3-5-7-5-3-2-3--|
-----------------------------------------------------------|-----------------------------------------------------------|------------------------------4-----4----4-----5-----5---5-|--2--0--2--0------5--5--5--5--4-----4----4-----5-----5---5-|--3--2--3--0---2--5--5--5--5--2-----2----2-----3-----3---3-|---------------3--3--3--3--3-----2-----2---2------3----3---|x4
-----------------------------------------------------------------------|-----------------------------------------------------------------------|--------------------------------------4-----4------5--5-5--------5-----|--5--5--5--7--5-----4--4--4--5--4\\---4-----4------5--5-5--5-----5-----|--7--7--7--7--7--5--5--5--5--5--5\\---2-----2------3--3-3--3-----3-----|-----------------------------------------2-----2--------------3-----3--|x2
-----------|-----------------------------------------------------|-----------|-----------------------------------------------------|-----------|-----------------------------------------------------|--5--------|--------------2----------------2-(2)-------------2-3-|--7--------|--------------2----------------2-(2)-------------2-3-|--0--------|--0-0-0-0-0-0-0----0-0-0-0-0-0-------0-0-0-0-0-0-----| Play 4 times Play 4 times
-------------------------------------------------------------------|-------------------------------------------------------------------|-------------------------------------------------------------------|--------------------------------------------------------------2-3--|--------------2---------------2---------------2---------------2-3--|--0-0-0-0-0-0-0---0-0-0-0-0-0-0---0-0-0-0-0-0-0---0-0-0-0-0-0------|
------------------------------------------------------------------------|------------------------------------------------------------------------|--------------9---------------9-10--------------7-----------------7/10--|------------------------------------------------------------------------|--------------7---------------7- 8--------------5-----------------5/ 8--|--0-0-0-0-0-0-----0-0-0-0-0-0-------0-0-0-0-0-0-------0-0-0-0-0-0-------|x2
--------------------------------------------------------------------|--------------------------------------------------------------------|--------------------------------------------------------------------|---------------------------------------------------------------2-3--|--------------2---------------2----------------2---------------2-3--|--0-0-0-0-0-0-0---0-0-0-0-0-0-0----0-0-0-0-0-0-0---0-0-0-0-0-0------|
Double-time-----------------------------------------|-----------------------------------------|-----------------------------------------|--------------2--------------2--------3--|--------------2--------------2--------3--|--0-0-0-0-0-0----0-0-0-0-0-0----0-0-0----|
FretBoard Tapping Solo Kirk Hammetts Best Bit!!!!!!!!!!!!!
T T T T T T T T-19p15h12--19p15h12-19p15h12-19p15h12-19p15h12-19p15h12-19p15h12-19p15h12-|--------------------------------------------------------------------------|--------------------------------------------------------------------------|--------------------------------------------------------------------------|--------------------------------------------------------------------------|--------------------------------------------------------------------------|
T T T T T T T T-20p15h12--20p15h12-20p15h12-20p15h12-20p15h12-20p15h12-20p15h12-20p15h12-|--------------------------------------------------------------------------|--------------------------------------------------------------------------|--------------------------------------------------------------------------|--------------------------------------------------------------------------|--------------------------------------------------------------------------|
T T T T T T T T--------------------------------------------------------------------------|-19p15h12--19p15h12-19p15h12-19p15h12-19p15h12-19p15h12-19p15h12-19p15h12-|--------------------------------------------------------------------------|--------------------------------------------------------------------------|--------------------------------------------------------------------------|--------------------------------------------------------------------------|
T T T T T T T T--------------------------------------------------------------------------|-20p15h12--20p15h12-20p15h12-20p15h12-20p15h12-20p15h12-20p15h12-20p15h12-|--------------------------------------------------------------------------|--------------------------------------------------------------------------|--------------------------------------------------------------------------|--------------------------------------------------------------------------|
T T T T T T T T--------------------------------------------------------------------------|-17p13h10--17p13h10-17p13h10-17p13h10-17p13h10-17p13h10-17p13h10-17p13h10-|--------------------------------------------------------------------------|--------------------------------------------------------------------------|--------------------------------------------------------------------------|--------------------------------------------------------------------------|
T T T T T T T T--------------------------------------------------------------------------|-18p13h10--18p13h10-18p13h10-18p13h10-18p13h10-18p13h10-18p13h10-18p13h10-|--------------------------------------------------------------------------|--------------------------------------------------------------------------|--------------------------------------------------------------------------|--------------------------------------------------------------------------|
T T T T T T T T T T T T-------------------------------------------------------------------------|-17p12h14-17p12-17p10-17p12-17p10-17p8--17p10-17p8-17p7-17p8-17p7-17p5---|-------------------------------------------------------------------------|-------------------------------------------------------------------------|-------------------------------------------------------------------------|-------------------------------------------------------------------------|
------------------------------14-14-14--15-15-15--17-17-17---------------|-/12-12-12--12-12-12--12--12--------------------------------15-15-15-----|-------------------------------------------------------------------------|-------------------------------------------------------------------------|-------------------------------------------------------------------------|-------------------------------------------------------------------------|
-17-17-17-17--22^24-------22^24----22^24~~~~~~~~~\\----------------|-------------------------------------------------------------------|-------------------------------------------------------------------|-------------------------------------------------------------------|-------------------------------------------------------------------|-------------------------------------------------------------------|
---------15h17p15------|---17-19---------------|-----------------------|-----------------------|-----------------------|-----------------------|x5
-19p17p15--------|-----------------|-----------------|-----------------|-----------------|-----------------|x8
-15-15-15-15-15-15-15-15-17-15-15-15-17-15-15-15--|--------------------------------------------------|--------------------------------------------------|--------------------------------------------------|--------------------------------------------------|--------------------------------------------------|
-19p17p15-15-17p15p14-14-----------------------------------------------------------|-------------------------19p17p15-15-17p15p14-14-----------------------------------|-------------------------------------------------19p17p15-15-17p15p14-14-14---12-14|----------------------------------------------------------------------------14-----|-----------------------------------------------------------------------------------|-----------------------------------------------------------------------------------|
-------------------------------------------------------------------------|-------------------------------------------------------------------------|-14^16-14^16-14^16-----------12-----12-----------------------------------|-------------------------14-----14------14-13-12-------------------------|--------------------------------------------------14-13-12-10~~~~~-------|-------------------------------------------------------------------------|
---------------------------|---------------------------|-------------------|---------15^----------15^--|---------15^----------15^--|-17^-v-^-v-^-17^v^-|---------15^----------15^--|---------15^----------15^--|-17^-v---v-^-17^v^-|-17--17--------17--17------|-17--17--------17--17------|-------------------|---------------------------|---------------------------|-------------------|---------------------------|---------------------------|-------------------|
---------------------|------------------------|----------------------------|-v(17)-^-v--15----15-|--------15^---------15^-|-17-----17-----15^-------15-|-v(17)-^-v--15----15-|--------15^---------15^-|-17-----17-----15^----------|---------------17----|-17--17------17--17-----|----------------------------|---------------------|------------------------|----------------------------|---------------------|------------------------|----------------------------|
-------15--------15--------15--------15--------15--------15--------------||-18^20-----18^20-----18^20-----18^20-----18^20-----18^20-----18^20~~~~~~-||-------------------------------------------------------------------------||-------------------------------------------------------------------------||-------------------------------------------------------------------------||-------------------------------------------------------------------------||
---------------------------------------------------------------------|---------------------------------------------------------------------|---------------------------------------------------------------------|---------------------------------------------------------------------|---------------------------5-5-5--5-5-5----4-4-4---3-3-3---2-2-2-----|-3-3-3--3-3-3--3-----------------------------------------------------|
Riff C
---------------------------------------------|---------------------------------------------|---------------------------------------------|---------------2-----------------2--------3--|---------------2-----------------2--------3--|--0-0-0-0-0-0-----0-0-0----0-0-0----0-0-0----|
Play riff C 9 times
------------------------------------------------------------------------|------------------------------------------------------------------------|------------------------------------------------------------------------|------------------------------------------------------------------------|---------------------------5-5-5-----5-5-5----4-4-4---3-3-3---2-2-2-----|-0-0-0--0-0-0--0--------------------------------------------------------|
[ two guitars ]-----------------------5--5--5------|------------------7--7--7--5--------|-8--8--8--7^-----------7--7--7------|--8^--------5-----8--8--8--7--------|-9--9--9--7^----7-------------------|--8^--------------------------------|----------------9-------------------|------------9-----------------------|------------------------------------|------------------------------------|------------------------------------|------------------------------------|
-7--5-----5-------5-----------------|------------------------------------|-8--7--8--7-------7--8--7--8--------|-8--7--5--7--------7--5-----5-------|-------9-------------9--7--9--------|-9--7--6--7--------7--6--7--6-------|------------------------------------|-------------------------9----------|------------------------------------|------------------------------------|------------------------------------|------------------------------------|
-----------------------5--5--5------|------------------7--7--7--5--------|-8--8--8--7^-----------7--7--7------|--8^--------5-----8--8--8--7--------|-9--9--9--7^----7-------------------|--8^--------------------------------|----------------9-------------------|------------9-----------------------|------------------------------------|------------------------------------|------------------------------------|------------------------------------|
-7--5-----5-------5-----------------|-8--7--5--7--------7--5-----5-------|-8--7--8--7-------7--8--7--8--------|-10-8--7--8--------8--7--8--7-------|-------9-------------9--7--9--------|-------------------------9----------|------------------------------------|------------------------------------|------------------------------------|------------------------------------|------------------------------------|------------------------------------|
-----------------------5--5--5------|------------------7--7--7--5--------|-8--8--8--7^-----------7--7--7------|--8^--------5-----8--8--8--7--------|-9--9--9--7^----7-------------------|--8^--------------------------------|----------------9-------------------|------------9-----------------------|------------------------------------|------------------------------------|------------------------------------|------------------------------------|
-7--5-----5-------5-----------------|------------------------------------|-8--7--8--7-------7--8--7--8--------|-8--7--5--7--------7--5-----5-------|-------9-------------9--7--9--------|-9--7--6--7--------7--6--7--6-------|------------------------------------|-------------------------9----------|------------------------------------|------------------------------------|------------------------------------|------------------------------------|
-----------------------5--5--5------|------------------7--7--7--5--------|-8--8--8--7^-----------7--7--7------|--8^--------5-----8--8--8--7--------|-9--9--9--7^----7-------------------|--8^--------------------------------|----------------9-------------------|------------9-----------------------|------------------------------------|------------------------------------|------------------------------------|------------------------------------|
-7--5-----5-------5-----------------|------------------------------------|-8--7--8--7-------7--8--7--8--------|-8--7--5--7--------7--5-----5-------|-------9-------------9--7--9--------|-9--7--6--7--------7--6--7--6-------|------------------------------------|-------------------------9----------|------------------------------------|------------------------------------|------------------------------------|------------------------------------|
------------------------------------|------------------------------------|-5----------------------------------|------------------------------------|-6--7--6--7-------7--6--4--6--------|-6--4--2--4--------4--2--0--2-------|----9--7--9-------9--7--5--7--------|-7--5--4--5--------4--2--0--2-------|------------------------------------|------------------------------------|------------------------------------|------------------------------------|
[ two guitars Riff C
-------------------------|--------------------|-------------------------|--------------------|-------------------------|--------------------|---------------2---------|--------2--------3--|---------------2---------|--------2--------3--|--0-0-0-0-0-0-----0-0-0--|--0-0-0----0-0-0----|
[ Play riff C 4 times
-------------------------|--------------------|-------------------------|--------------------|-------------------------|--------------------|-------------5--------5--|--------5--------5--|-------------5--------5--|--------5--------5--|--3-----3----3--3--3--3--|--3--3--3--3--3--3--|
-------------------------|--------------------|-------------------------|--------------------|-------------------------|--------------------|---------------2---------|--------2--------3--|---------------2---------|--------2--------3--|--0-0-0-0-0-0-----0-0-0--|--0-0-0----0-0-0----|
-------------------------|--------------------|-------------------------|--------------------|-------------------------|--------------------|-------------5--------5--|--------5--------5--|-------------5--------5--|--------5--------5--|--3-----3----3--3--3--3--|--3--3--3--3--3--3--|
-------------------------|--------------------|-------------------------|--------------------|-------------------------|--------------------|---------------2------2--|--------3--------3--|---------------2------2--|--------3--------3--|--0-0-0-0-0-0---------0--|--1--1--1--1--1--1--|[ play this 2 bars 3 times ]
-------------------------|--------------------|--------------------|-------------------------|--------------------|--------------------|-------------------------|--------------------|--------------------|---------------2------2--|--------5--------5--|--------5--------5--|---------------2------2--|--------5--------5--|--------5--------5--|--0-0-0-0-0-0---------0--|--3--3--3--3--3--3--|--3--3--3--3--3--3--|
-------------------------|--------------------|-------------------------|--------------------|-------------------------|--------------------|---------------2---------|--------2--------3--|---------------2---------|--------2--------3--|--0-0-0-0-0-0-----0-0-0--|--0-0-0----0-0-0----|
--------------------------------------------------------------------||--------------------------------------------------------------------||--------------------------------------------------------------------||--2-2-2--2-2-2--2------------2-2-2-2-2-2--2-------------------------||--2-2-2--2-2-2--2------------2-2-2-2-2-2--2-------------------------||--0-0-0--0-0-0--0------------0-0-0-0-0-0--0-------------------------||
Tap to rate this tab
 
# A B C D E F G H I J K L M N O P Q R S T U V W X Y Z