Metallica – Wasting My Hate tab ver. 2

================================================================================
                               M E T A L L I C A

                                       -

                          W A S T I N G   M Y   H A T E
================================================================================


                                      LOAD
                            (c) Elektra Records (1996)
                             http://www.metallica.com/


                               Tune Down a 1/2 Step
                                D# G# C#  F# A# D#

                                  Tempo = 80 BPM
                               Time Signature = 4/4



                          -----------------------------
                                 Transcribed by

                                 PADDY MCMULLAN
                           pmtabs (@t) gmail [dot] com

                                   Version 1.0
                                 11th March 2012
                             -----------------------

                             Tablature Symbols Used:


 (/)       -  Legato Slide (Blank space indicates length of slide)
 \         -  Slide Down to/Down From
 /         -  Slide Up to/Up From
 ( )       -  Ghost Note/Tied Note/Implied Note
 P.M...    -  Palm Mute
 5b6       -  Bend
 6r5       -  Release Bend
 5~~       -  Vibrato
 x         -  Dead Note/Muted Note
 REST      -  Rest and Sustain Rest for Duration of Blank Space
              The word "REST" will be used sparingly, i.e. only once per riff
 5h7       -  Hammer-On
 7p5       -  Pull-Off
 *         -  Staccato Notes (Bring the indicated note(s) to an abrupt end)



================================================================================
Intro: Guitar 1 (Clean)                    [ Time 00:00 - 00:31 ] Tempo = 73 BPM
================================================================================


Rake| |-------| |-------------------------------------|| |--x----| |-------------------------------------||1 |---x---|4|-------------------------------------||/ |----x--|/|-------------5-----------------------||16|-----x-|4|--2--2--5----5-5h7----7~~--7 p5---5~-|| |-------| |--0--0--5 h7--------------------7----|
|-----------------------------------------|------------------------------------||-----------------------------------------|------------------------------------||-----------------------------------------|------------------------------------||-----------------------------------------|------------------------------------||-(5)--5-------5-(3)-----------------2----|-(2)--2-------5-5h7--7~~--7 p5---5~-||---------5 h7----3h5-----5 p0-3 h5p(0)-0-|-(0)--0--5 h7------------------7----|
|---------------------------------------|--------------------------------------||---------------------------------------|--------------------------------------||---------------------------------------|--------------------------------------||---------------------------------------|-----------------(5)------------------||-(5)--5------5-(3)-------------------2-|--(2)--2-------5--5h7---7~~-7 p5---5~-||--------5 h7----3h5---5 p0-5-(3 b5)--0-|--(0)--0--5 h7-------------------7----|
|--------------------------------------|---------------------------------------||--------------------------------------|---------------------------------------||--------------------------------------|---------------------------------------||--------------------------------------|-----------------(5)-------------------||-(5)--5------5-(3)---------------2----|--(2)--2-------5--5h7---7~~--7 p5---5~-||--------5 h7----3h5---5 p0-3 h5p(0)-0-|--(0)--0--5 h7--------------------7----|
|-------------------------------------------| |------------| ||-------------------------------------------| |------------| ||-------------------------------(0)---------|2|------------|4||-------5-----------------------------------|/|------------|/||--(5)--5-------5-(3)------------------2----|4|--(2)-------|4||----------5 h7----3h5-----5 p0--3 h5p(0)-0-| |--(0)-------| |
================================================================================ Pre-Verse 1: Guitars 2 & 3 w/ Distortion [ Time 00:31 - 00:55 ] Tempo = 80 BPM ================================================================================ ========= Guitar 2: ========= //--------------------------------Segue----------------------------\\
| |-----------------| |---------------------------------------------|| |--R- ---------| |---------------------------------------------||2|--E- -------9-|4|--(9)-------9---------9---------9------------||/|--S- -7--7 /9-|/|--(9)-7--7 /9---7--7 /9---7--7 /9---7--------||4|--T- -0--5 /7-|4|--(7)-0--5 /7---0--5 /7---0--5 /7---0--(5/7)-|| |-----------------| |---------------------------------------------| ... ... ... ... ...
Pre-Verse Begins
||--------------------------------------------------|||--------------------------------------------------|||--------------------------------------------------|||--------------------------------------------------|||--7-----7-----7--6-----5--------5-----5--5-----5--|||--0--0--0--0--0--0--0--0--0--0--7--7--7--6--0--5--| ... ... ... .... ... ...
|---------------------------------------------------| ||---------------------------------------------------| ||---------------------------------------------------|*||---------------------------------------------------|*| x 4|--------5-----5--5-----(5 /7)--7-----(5/7)--7--7--| ||--5--5--5--5--5--4--0--(3 /5)--5--0--(3/5)--5--0--| | .... ... ... ...
The first E chord in the first bar becomes a ghost note during subsequent repeats (that is, you hold the last chord of the last bar rather than strike the chord again). ========= Guitar 3: ========= //--------------------------------Segue----------------------------\\
| |------------------| |--------------------------------------------|| |--R- ----------| |--------------------------------------------||2|--E- ----7--9~-|4|--(9)----7--9~-----7--9~-----7--9~-----7----||/|--S- -7--7--9~-|/|--(9)-7--7--9~--7--7--9~--7--7--9~--7--7--9-||4|--T- -7--------|4|------7---------7---------7---------7-------|| |------------------| |--------------------------------------------| ... ... ... ... ...
||-----------------------|--------|------------------------|||-----------------------|-- --|------------------------|||--9 \-- --|-- --|------------------------|||--9 \-- --|-- --|--x-x--------x-x--------|||-----------------------|-- --|--x-x--------x-x--------|||-----------------------|--------|--x-x--------x-x--------|
|-------------------------------|_|----x--------------------------|_|--x-x--------------------------|_ -- From here, join in with Guitar 2|--x-x--------x-x-x-x-x-x-x-x---|_|--x-x--------x-x-x-x-x-x-x-x-7-|_|--x-x--------x-x-x-x-x-x-x-x-0-|_
================================================================================ Verse 1: Guitars 2 & 3 [ Time 00:55 - 01:19 ] ================================================================================ ========= Guitar 2: =========
||---------------------------------------| |||--*---*---*-------------*----*---------| |||--9---9---9---9--10--10-10---10---10-9-|*|||--9---9---9---9--10--10-10---10---10-9-|*| x 2||--7---7---7---7--7---7--7----7----7--7-| |||---------------------------------------| |
|-----------------------------------------||--*---*---*-------------*----------------||--9---9---9---9--10--10-10---10--------9-||--9---9---9---9--10--10-10---10--7--7 /9-||--7---7---7---7--7---7--7----7---0--5 /7-||-----------------------------------------| ...
|------------------------------------|-------------------------------------||------------------------------------|--*--*--*------------*----*----------||-(9)------9-------9-------9-------9-|--9--9--9--9--10--10-10---10---10 \7-||-(9)-7-7 /9--7-7 /9--7-7 /9--7-7 /9-|--9--9--9--9--10--10-10---10---10 \7-||-(7)-0-5 /7--0-5 /7--0-5 /7--0-5 /7-|--7--7--7--7--7---7--7----7----7 \5-||------------------------------------|-------------------------------------| . . . .
|----------------------------------|---------------------------------------||--*---*---*-----------------------|--*---*---*-------------*--------------||--7---7---7---7------*---*-----10-|--9---9---9---9--10--10-10---9-------9-||--7---7---7---7-7--7-7---7---7-10-|--9---9---9---9--10--10-10---9-7--7 /9-||--5---5---5---5-7--7-7---7---7-7--|--7---7---7---7--7---7--7----7-0--5 /7-||----------------5--5-5---5---5----|---------------------------------------| ...
|---------------------------------------------|||---------------------------------------------|||--(9)-------9---------9---------9------------|||--(9)-7--7 /9---7--7 /9---7--7 /9---7--7 /9--|||--(7)-0--5 /7---0--5 /7---0--5 /7---0--5 /7--|||---------------------------------------------|| ... ... ... ...
========= Guitar 3: =========
||--------------------------------------| |||--*---*---*---*---*----*----*----*----| |||--9---9---9---9---10---10---10---10---|*|||--9---9---9---9---10---10---10---10---|*| x 2||--7---7---7---7---7----7----7----7----| |||--------------------------------------| |
|----------------------------------------||--*---*---*---*---*----*----*-----------||--9---9---9---9---10---10---10----7--9~-||--9---9---9---9---10---10---10-7--7--9~-||--7---7---7---7---7----7----7--7--------||----------------------------------------| ...
|---------------------------------------|--------------------------------------||---------------------------------------|--*---*---*---*---*----*----*----*----||-(9)----7-9~-----7-9~-----7-9~-----7-9-|--9---9---9---9---10---10---10---10---||-(9)-7--7-9~--7--7-9~--7--7-9~--7--7-9-|--9---9---9---9---10---10---10---10---||-----7--------7--------7--------7------|--7---7---7---7---7----7----7----7----||---------------------------------------|--------------------------------------| ... ... ... ...
|----------------------------------|----------------------------------------||--*---*---*---*---*---*---*---*---|--*---*---*---*---*----*----*-----------||--7---7---7---7---9---9---9---9---|--9---9---9---9---10---10---10----7--9~-||--7---7---7---7---7---7---7---7---|--9---9---9---9---10---10---10-7--7--9~-||--5---5---5---5---0---0---0---0---|--7---7---7---7---7----7----7--7--------||----------------------------------|----------------------------------------| ...
|----------------------------------------|||----------------------------------------|||-(9)----7-9~-----7-9~-----7-9~----------|||-(9)-7--7-9~--7--7-9~--7--7-9~--7-------|||-----7--------7--------7--------7-------|||-----------------------------------10\ -|| ... ... ...
================================================================================ Chorus 1: Guitars 2 & 3 [ Time 01:19 - 01:42 ] ================================================================================
||-----------------------------------|------------------------------------|||-----------------------------------|------------------------------------|||-----------------------------------|------------------------------------|||-----------------------------------|------------------------------------|||--2--2-------5-5h7~~--7--7 p5---5~-|-(5)--5-------5-----------------2-2-|||--0--0--5 h7------------------7----|---------5 h7---3h5---5 p0-3 h5---0-|
|------------------------------------|-----------------------------------||------------------------------------|-----------------------------------||------------------------------------|-----------------------------------||------------------------------------|-----------------------------------||-(2)--2-------5-5h7~~--7--7 p5---5~-|-(5)-5-------5-----------------2-2-||-(0)--0--5 h7------------------7----|--------5 h7---3h5---5 p0-3 h5---0-|
|-------------------------------------|-----------------------------------||-------------------------------------|-----------------------------------||-------------------------------------|-----------------------------------||-------------------------------------|-----------------------------------||-(2)-2-2-------5-5h7~~--7--7 p5---5~-|-(5)-5-------5-----------------2-2-||-(0)-0-0--5 h7------------------7----|--------5 h7---3h5---5 p0-3 h5---0-|
|-------------------|--------------------|||-------------------|--------------------|||-------------------|--------------------|||-------------------|--------------------|||--(2)--------------|--(2)---------------|||--(0)--------------|--(0)---------------||
Notice the slight variation at the beginning of bar 5 ================================================================================ Pre-verse 2: Repeat Pre-verse 1 Twice [ Time 01:42 - 1:54 ] ================================================================================ ================================================================================ Verse 2: Repeat Verse 1 with the following variations [ Time 01:54 - 02:18 ] ================================================================================ ========= Guitar 2: ========= Play Verse 1 as is except for the final bar, which is replaced with the following:
|-------------------------------------|||-------------------------------------|||-(9)-------9--------9----------------|||-(9)-7--7 /9--7--7 /9----------------|||-(7)-0--5 /7--0--5 /7--7-7-7-5-------|||-------------------------------7-5-0-|| ... ...
========= Guitar 3: =========
||--------------------------------------|||--*---*---*---*---*----*----*----*----|||--9---9---9---9---10---10---10---10---|||--9---9---9---9---10---10---10---10---|||--7---7---7---7---7----7----7----7----|||--------------------------------------|
|-------------------------------------|----------------------------------------||--*---*---*---*---*----*----*----*---|--*---*---*---*---*----*----*-----------||--9---9---9---9---10---10---10---10--|--9---9---9---9---10---10---10----7--9~-||--9---9---9---9---10---10---10---10--|--9---9---9---9---10---10---10-7--7--9~-||--7---7---7---7---7----7----7----7---|--7---7---7---7---7----7----7--7--------||-------------------------------------|----------------------------------------| ...
|---------------------------------------||---------------------------------------||-(9)----7-9~-----7-9~-----7-9~---------||-(9)-7--7-9~--7--7-9~--7--7-9~---------||-----7--------7--------7--------0-0----||-------------------------------------0-| ... ... ... .
|----------------------------------------------||----------------------------------------------||--*---*---------------------------------------||--9---9---9--9--9--9--9--9--9--9--9--9--9--7--||--7---7---7--7--7--7--7--7--7--7--7--7--7--5--||--7---7---7--7--7--7--7--7--7--7--7--7--7--5--| ..................................
|---------------------------------------------------||---------------------------------------------------||-----------------------------------------------10 \||--7--7--7--7--7--7--7--------------------------10 \||--5--5--5--5--5--5--5--7--7--7--7--7--7--7--7--8 \||--5--5--5--5--5--5--5--5--5--5--5--5--5--5--5--8 \| ...........................................
|-----------------------------------------------||-----------------------------------------------|| -9---------------------------------------7-9~-|| -9---9--9--9--9--9--9--9--9--9--9--9--7--7-9~-|| -7---7--7--7--7--7--7--7--7--7--7--7--7-------|| -7---7--7--7--7--7--7--7--7--7--7--7----------| ..................................
|------------------------------------------|||------------------------------------------|||-(9)----7-9~-----7-(9b11)~~---7-9-9-9-9-9-|||-(9)-7--7-9~--7--7-(9b11)~~---7-9-9-9-9-9-|||-----7--------7-----------------7-7-7-7-7-|||--------------------------------7-7-7-7-7-|| ... ...
================================================================================ Chorus 2: Repeat Chorus 1 with the following variations [ Time 02:18 - 02:48 ] ================================================================================ ========= Guitar 2: ========= Repeat Chorus 1 as is except for the last two bars which are replaced with the following:
Rake|-------------------|--------------------x-----|-------------------||-------------------|----------------------x---|-------------------||-------------------|------------------------x-|-------------------||-------------------|--------------------------|--2----------------||--(2)--------------|--(2)---------------------|--2----------------||--(0)--------------|--(0)---------------------|--0----------------|
|-------------------|||-------------------|||-------------------|||--(2)--------------|||--(2)--------------|||--(0)--------------||
========= Guitar 3: ========= Repeat the first 4 bars of Chorus 1 and then move onto the following:
|----------------------------------------|-------------------------------------||----------------------------------------|-------------------------------------||----------------------------------------|-------------------------------------||----------------------------------------|----------------------------------2--||-(2)--2-2------5-5h7~~--7-(9b10r9)-7-9~-|-(9)-9~--(9b10r9)--9-7--7\5-5/7-7-2--||-(0)--0-0-5 h7--------------------------|----------------------------------0--|
|---------------|---------------|-------------------|-------------------|||---------------|---------------|-------------------|-------------------|||---------------|---------------|-------------------|-------------------|||--(2)----------|--(2)----------|-------------------|-------------------|||--(2)----------|--(2)----------|--2----------------|--(2)--------------|||--(0)----------|--(0)----------|--0----------------|--(0)--------------||
================================================================================ Break: Guitars 2 & 3 [ Time 02:48 - 02:59 ] ================================================================================
||----------------------------------------------| |||----------------------------------------------| |||--------9-------9-------9-------9-------10-10-|*|||--7--7 /9-7--7 /9-7--7 /9-7--7 /9-7--7 /10-10-|*| x 4||--0--5 /7-0--5 /7-0--5 /7-0--5 /7-0--5 /7--7--| |||----------------------------------------------| | ... ... ... ... ...
===== Fill: =====
||----------------------| |||--R-- --0-0-| |||--E-- --5-5-|*|||--S-- --7-7-|*| x 4||--T-- --8-8-| |||----------------------| |
================================================================================ Verse 3: Repeat Verse 1 with the following variations [ Time 02:59 - 03:23 ] ================================================================================ ========= Guitar 2: ========= Repeat Verse 1 as in except for the final bar, which is replaced with the following:
|-------------------------------------------|||-------------------------------------------|||-(9)-------9--------9----------------------|||-(9)-7--7 /9--7--7 /9----------------------|||-(7)-0--5 /7--0--5 /7--5h7-7-7-5h7-7-5h7-7-|||-------------------------------------------|| ... ...
========= Guitar 3: =========
||---------------------------------------------------|||---------------------------------------------------|||--9------------------------------------------------|||--9--9--9--9--9--9--9--9--9--9--9--9--9--9--9--10 \|||--7--7--7--7--7--7--7--7--7--7--7--7--7--7--7--8 \|||--7--7--7--7--7--7--7--7--7--7--7--7--7--7--7--8 \| ........................................
|--------------------------------------------------||--------------------------------------------------||--------------------------------------------------||--9--9--9--9--9--9--9--9--9--9--9--9--9--9--9--7 /||--7--7--7--7--7--7--7--7--7--7--7--7--7--7--7--5 /||--7--7--7--7--7--7--7--7--7--7--7--7--7--7--7--5 /| ...........................................
|-------------------------------------------------||-------------------------------------------------||-------------------------------------------------||--9--9--9--9--9--9--9--9--9--9--9--9--9--7--7 /9-||--7--7--7--7--7--7--7--7--7--7--7--7--7--0--5 /7-||--7--7--7--7--7--7--7--7--7--7--7--7--7----------| .....................................
|----------------------------------------||----------------------------------------||-----------9--------9--------9--------9-||-(9)-7--7 /9--7--7 /9--7--7 /9--7--7 /9-||-(7)-0--5 /7--0--5 /7--0--5 /7--0--5 /7-||----------------------------------------| ... ... ... ...
|--------------------------------------------------||--------------------------------------------------||--------------------------------------------------||--2-----------------------------------------------||--2--2--2--2--2--2--2--2--2--2--2--2--2--2--2--2--||--0--0--0--0--0--0--0--0--0--0--0--0--0--0--0--0--| ...........................................
|-------------------------------------------------||-------------------------------------------------||--7----------------------------------------------||--7--7--7--7--7--7--7--7-----------------------3-||--5--5--5--5--5--5--5--5--7--7--7--7--7--7--7 \3-||--5--5--5--5--5--5--5--5--5--5--5--5--5--5--5 \1-| ........................................
|-------------------------------------------------||-------------------------------------------------||--------------------------------------------7-9~-||--2--------------------------------------7--7-9~-||--2--2--2--2--2--2--2--2--2--2--2--2-----7-------||--0--0--0--0--0--0--0--0--0--0--0--0--0----------| .....................................
|-----------------------------------------------|||--------------8~-8~-8~-8~-8~-8~-8~-8~-8~-8~- \-|||-(9)----7-9~--7~-7~-7~-7~-7~-7~-7~-7~-7~-7~- \-|||-(9)-7--7-9~-----------------------------------|||-----7-----------------------------------------|||-----------------------------------------------|| ...
================================================================================ Chorus 3: Repeat Chorus 1 with the following variations [ Time 03:23 - 03:57 ] ================================================================================ ========= Guitar 2: ========= Repeat Chorus 1 as is replacing the last two bars with the following:
|-------------------|----------------------------|-------------------||-------------------|-------------------------x--|-------------------||-------------------|--------------------------x-|-------------------||-------------------|----------------------------|--2----------------||--(2)--------------|--(2)-----------------------|--2----------------||--(0)--------------|--(0)-----------------------|--0----------------|
|----------------|----------------------------------------------|||----------------|----------------------------------------------|||----------------|--------9-------9-------9-------9-------10-10-|||--(2)-----------|--7--7 /9-7--7 /9-7--7 /9-7--7 /9-7--7 /10-10-|||--(2)-----------|--0--5 /7-0--5 /7-0--5 /7-0--5 /7-0--5 /7--7--|||--(0)-----------|----------------------------------------------|| ... ... ... ... ...
========= Guitar 3: ========= Repeat Chorus 1 as is replacing the last two bars with the following:
|-------------------|----------------------|-------------------||-------------------|----------------------|-------------------||-------------------|----------------------|-------------------||--(2)--------------|--(2)----------11\ --|--2----------------||--(2)--------------|--(2)----------11\ --|--2----------------||--(0)--------------|--(0)-----------------|--0----------------|
|------------------------------|----------------------------------------------|||------------------------------|----------------------------------------------|||------------------------------|--------9-------9-------9-------9-------10-10-|||--(2)-------------------------|--7--7 /9-7--7 /9-7--7 /9-7--7 /9-7--7 /10-10-|||--(2)----2/ 14-18-19~~--16\ -|--0--5 /7-0--5 /7-0--5 /7-0--5 /7-0--5 /7--7--|||--(0)--------------------16\ -|----------------------------------------------|| ... ... ... ... ...
================================================================================ End ================================================================================ Tab summary: Intro Pre-verse 1 Verse 1 Chorus 1 Pre-verse 2 Verse 2 Chorus 2 Break Verse 3 Chorus 3 END
Please rate this tab:
x1.0