Metallica - Dyers Eve tab

================================================================================
                               M E T A L L I C A

                                       -

                               D Y E R S   E V E
================================================================================


                             ...AND JUSTICE FOR ALL
                        (c) Elektra/Vertigo Records (1988)
                            http://www.metallica.com/


                                 Standard Tuning
                                   E A D G B E

                                  Tempo = 96 BPM
                            Time Signature = 4/4 (Varies)



                          -----------------------------
                                 Transcribed by

                                 PADDY MCMULLAN
                           pmtabs (@t) gmail [dot] com

                          Version 1.0 [7th October 2012]
                                  
                                  Date  Tabbed
                                7th October 2012
                             -----------------------

                             Tablature Symbols Used:


 (/)       -  Legato Slide (Blank space indicates length of slide)
 \         -  Slide Down to/Down From
 /         -  Slide Up to/Up From
 ( )       -  Ghost Note/Tied Note/Implied Note
 REST      -  Rest and sustain rest for duration of blank space
 |_3_|     -  Triplet Notes
 ...       -  Palm Mute
 5b6       -  Bend
 6r5       -  Release Bend
 13b;      -  Three Quarter Note Bend
 5~~       -  Vibrato (Whammy vibrato will be specified when required)
 <5>       -  Harmonic (Natural & Pinch Harmonics indicated with N & P)
 x         -  Dead Note/Muted Note
 %         -  Whammy Bar Articulation
 5h7       -  Hammer-On
 7p5       -  Pull-Off
 *         -  Staccato Notes (Bring the indicated note(s) to an abrupt end)
 |__[1,2]  -  Alternate Endings/Beginnings



================================================================================
Intro: Guitars 1 & 2 (Distortion)                         [ Time 00:00 - 00:35 ]
================================================================================


| |--------------------------| |-----------------------|| |--------------------------| |----- ----- ----- -----||2|--------------------------|7|----- ----- ----- -----||/|--4--5--4--5--------------|/|--*-- --*-- --*-- -----||4|--2--3--2--3--0--3--0--3--|8|--2-- --3-- --2-- --5--|| |--------------0--1--0--1--| |--0-----1-----0-----3--| ......................
|--------------------------|--------------------|-----------------------------||----- ----- ----- --------|--------------------|-----------------------------||----- ----- ----- --------|--------------------|-----------------------------||--*-- --*-- --*-- --------|--------------------|-----------------------------||--2-- --3-- --2-- --0--3--|--2----3----2----5--|--2----3----2----2--3--0--3--||--0-----1-----0-----0--1--|--0----1----0----3--|--0----1----0----0--1--0--1--| .... ..........
|--------------------------|----------------------------||--------------------------|----------------------------||--------------------------|----------------------------||-----------------------*--|----------------------------||--2--x-x-3--x-x-2--x-x-5--|--2--x-x-3--x-x-2--x-x------||--0--x-x-1--x-x-0--x-x-3--|--0--x-x-1--x-x-0--x-x-0-1--| ...
|--------------------------|----------------------------||--------------------------|----------------------------||--------------------------|----------------------------||-----------------------*--|----------------------------||--2--x-x-3--x-x-2--x-x-5--|--2--x-x-3--x-x-2-----------||--0--x-x-1--x-x-0--x-x-3--|--0--x-x-1--x-x-0--0-1-0-1--| .......
|--------------------------|----------------------------||--------------------------|----------------------------||--------------------------|----------------------------||-----------------------*--|----------------------------||--2--x-x-3--x-x-2--x-x-5--|--2--x-x-3--x-x-2--x-x------||--0--x-x-1--x-x-0--x-x-3--|--0--x-x-1--x-x-0--x-x-0-1--| ...
|--------------------------|---------------------------|--------------||--------------------------|---------------------------|--------------||--------------------------|---------------------------|--------------||-----------------------*--|---------------------------|--2-----------||--2--x-x-3--x-x-2--x-x-5--|--2--x-x-3--x-x-2----------|--2-----------||--0--x-x-1--x-x-0--x-x-3--|--0--x-x-1--x-x-0--0-1-0-1-|--0-----------| .......
| |-------------------| |-----------||| |-------------------| |-----------|||4|-------------------|2|-----------|||/|--(2)--------------|/|--(2)------|||4|--(2)--------------|4|--(2)------||| |--(0)--------------| |--(0)------||
During the final 3 bars the tempo gradually decreases to around 36 BPM, returning to 96 BPM when the next part begins ================================================================================ Part 1: Guitars 1 & 2 [ Time 00:35 - 01:12 ] ================================================================================
| |---------------------------------------------------------------|| |---------------------------------------------------------------||4|---------------------------------------------------------------||/|--4--4-4-4-4-4-4-(5\4)----4--4--4-4-4-4-4-4-4-4-(5\4)----4--4--||4|--2--2-2-2-2-2-2-(3\2)----0--2--2-2-2-2-2-2-2-2-(3\2)----0--2--|| |---------------------------------------------------------------| ........... ...............
|--------------------------------------------------------------||--------------------------------------------------------------||--------------------------------------------------------------||--4-4-4-4-4-4-4-4-(5\4)----4--4--4-4-4-4-4-4-4-4--------5--4--||--2-2-2-2-2-2-2-2-(3\2)----0--2--2-2-2-2-2-2-2-2--3--2--------||--------------------------------------------------------------| ............... ........................
|-----------------------------------------------------------||-----------------------------------------------------------||-----------------------------------------------------------||--4--4-4-4-4-4-4-(5\4)----4--4--4-4-4-4-4-4-4-4-5\4-----4--||--2--2-2-2-2-2-2-(3\2)----0--2--2-2-2-2-2-2-2-2-3\2-----0--||-----------------------------------------------------------| ........... ............... ...
|-------------------------------------------------------------||-------------------------------------------------------------||-------------------------------------------------------------||--4--4-4-4-4-4-4-(5\4)----4--4--4-4-4-4-4-4-4-4--------5--4--||--2--2-2-2-2-2-2-(3\2)----0--2--2-2-2-2-2-2-2-2--3--2--------||-------------------------------------------------------------| ........... ........................
|---------------------------------------||------------ -------- -------- --------||------------ -------- -------- --------||--*------*-- -----*-- -----*-- -----*--||--2------2-- -----2-- -----2-- -----2--||--0--3-3-0----3-3-0----3-3-0----3-3-0--| ... ... ... ...
|-----------------------------------------------------||-----------------------------------------------------||-----------------------------------------------------||--4--4-4-4-4-4-4-4--4--4--4--5----5--5--4--4---------||--2--2-2-2-2-2-2-0--2--0--2--3----3--3--2--2---------||----------------------------------------------3-3-0--| ...................... .................
|----------------------------------------------------||----------------------------------------------------||----------------------------------------------------||--------------9-- \--------7-- \--------5-----------||--2-----------7-- \--------5-- \--------3-----------||--0----3-3-0--------3-3-0--5-- \-3-3-0--3----3-3-0--| ..... ..... ..... .....
|-----------------------------------------------------||-----------------------------------------------------||-----------------------------------------------------||--4--4-4-4-4-4-4-4--4--4--4--5----5--5--4--4---------||--2--2-2-2-2-2-2-0--2--0--2--3----3--3--2--2---------||----------------------------------------------3-3-0--| ...................... .................
|--------------------------|-------------------------------------------------||----- --*-- --*-- --*-- --|-------------------------------------------------||--*-- --9-- --7-- --5-- --|-------------------------------------------------||--2-- --9-- --7-- --5-- --|--4--4-4-4-4-4-4-4--4--4--4--5----5--5--4--------||--2-- --7-- --5-- --3-- --|--2--2-2-2-2-2-0-0--2--0--2--3----3--3--2--12\ --||--0-----7-----5-----3-----|-------------------------------------------12\ --| ...................... .......
|---------------------------------------------------------------||---------------------------------------------------------------||---------------------------------------------------------------||--4--4-4-4-4-4-4-(5\4)----4--4--4-4-4-4-4-4-4-4-(5\4)----4--4--||--2--2-2-2-2-2-2-(3\2)----0--2--2-2-2-2-2-2-2-2-(3\2)----0--2--||---------------------------------------------------------------| ........... ...............
|--------------------------------------------------------------||--------------------------------------------------------------||--------------------------------------------------------------||--4-4-4-4-4-4-4-4-(5\4)----4--4--4-4-4-4-4-4-4-4--------5--4--||--2-2-2-2-2-2-2-2-(3\2)----0--2--2-2-2-2-2-2-2-2--3--2--------||--------------------------------------------------------------| ............... ........................
|-----------------------------------------------------------||-----------------------------------------------------------||-----------------------------------------------------------||--4--4-4-4-4-4-4-(5\4)----4--4--4-4-4-4-4-4-4-4-5\4-----4--||--2--2-2-2-2-2-2-(3\2)----0--2--2-2-2-2-2-2-2-2-3\2-----0--||-----------------------------------------------------------| ........... ............... ...
|-------------------------------------------------------------||-------------------------------------------------------------||-------------------------------------------------------------||--4--4-4-4-4-4-4-(5\4)----4--4--4-4-4-4-4-4-4-4--------5--4--||--2--2-2-2-2-2-2-(3\2)----0--2--2-2-2-2-2-2-2-2--3--2--------||-------------------------------------------------------------| ........... ...........................
| |---------------------||| |---------------------|||2|---------------------|||/|-------------*-------|||4|--2----------2---2---||| |--0---3-3-0--0---0---|| .....
================================================================================ Part 2: Guitars 1 & 2 [ Time 01:12 - 01:56 ] ================================================================================
| |--------------------|-----------------------|--------------------|| |--------------------|-----------------------|--------------------||4|--------------------|-----------------------|--------------------||/|--------------------|--2---------------4-5--|--------------------||4|--4--------5--------|--0--------2------2-3--|--4--------5--------|| |--2--------3--------|-----------0-----------|--2--------3--------| ...
|-----------------------|----------------------|----------------------||-----------------------|----------------------|--------------- --||-----------------------|--11------ \ 7--------|--------------- --||-----------2-----------|--11------ \ 7--------|------------*-- --||--2--------0------4-5--|--9------- \ 5--------|--7------ \ 5-- --||--0---------------2-3--|----------------------|--5------ \ 3---------| ...
| |----------------|| |----------------||2|----------------||/|--4--4---5--5---||4|--2--2---3--3---|| |----------------| ... ...
| |----------------------------------------------------------------|| |----------------------------------------------------------------||4|----------------------------------------------------------------||/|---4--4-4-4-4-4-4-(5\4)----4--4--4-4-4-4-4-4-4-4-(5\4)----4--4--||4|---2--2-2-2-2-2-2-(3\2)----0--2--2-2-2-2-2-2-2-2-(3\2)----0--2--|| |----------------------------------------------------------------| ........... ...............
|--------------------|-----------------------|--------------------||--------------------|-----------------------|--------------------||--------------------|-----------------------|--------------------||--------------------|--2---------------4-5--|--------------------||--4--------5--------|--0--------2------2-3--|--4--------5--------||--2--------3--------|-----------0-----------|--2--------3--------| ...
|-----------------------|----------------------|----------------------||-----------------------|----------------------|--------------- --||-----------------------|--11------ \ 7--------|--------------- --||-----------2-----------|--11------ \ 7--------|------------*-- --||--2--------0------4-5--|--9------- \ 5--------|--7------ \ 5-- --||--0---------------2-3--|----------------------|--5------ \ 3---------| ...
| |-------------------------|| |-------------------------||2|-------------------------||/|--x-x-x--x--x-x-x--x--5--||4|--x-x-x--x--x-x-x--x--3--|| |-------------------------|
| |----------------------------------------------------------------|| |----------------------------------------------------------------||4|----------------------------------------------------------------||/|---4--4-4-4-4-4-4-(5\4)----4--4--4-4-4-4-4-4-4-4-(5\4)----4--4--||4|---2--2-2-2-2-2-2-(3\2)----0--2--2-2-2-2-2-2-2-2-(3\2)----0--2--|| |----------------------------------------------------------------| ........... ...............
|--------------------------------------------------------------||--------------------------------------------------------------||--------------------------------------------------------------||--4-4-4-4-4-4-4-4-(5\4)----4--4--4-4-4-4-4-4-4-4--------5--4--||--2-2-2-2-2-2-2-2-(3\2)----0--2--2-2-2-2-2-2-2-2--3--2--------||--------------------------------------------------------------| ............... ...........................
|----------------------||---- -------- --------||---- -------- --------||--*- -----*-- --------||--2- -----2-- -----2--||--0---3-3-0----3-3-0--| ... ...
|-----------------------------------------------------||-----------------------------------------------------||-----------------------------------------------------||--4--4-4-4-4-4-4-4--4--4--4--5----5--5--4--4---------||--2--2-2-2-2-2-2-0--2--0--2--3----3--3--2--2---------||----------------------------------------------3-3-0--| ...................... .................
| |------------------------||| |------------------------|||2|------------------------|||/|--------------*---------|||4|--2-----------2----2----||| |--0----3-3-0--0----0----|| .....
Dear mother, dear father What is this hell you have put me through? Believer, deceiver Day in, day out, live my life through you Pushed onto me what's wrong or right Hidden from this thing that they call "life" Dear mother, dear father Every thought I think you disapprove Curator, dictator Always censoring my every move Children are seen but are not heard Tear out everything inspired ================================================================================ Part 3: Guitars 1 & 2 [ Time 01:56 - 02:18 ] ================================================================================
||---------------------------------------------------|||------------------------------------------- -------|||------------------------------------------- -------|||----------------------------------------*-- --9- \ |||--2-2-2--2--2--2-2-2--2--2--2-----------2-- --7- \ |||--0-0-0--0--0--0-0-0--0--0--0----3-3-0--0----------| ........................ .....
|-----------------------------------------------||-----------------------------------------------||-----------------------------------------------||---------7-----------7---------------*---------||--5-5-5--5----5-5-5--5----2----------2----2----||--------------------------0---3-3-0--0----0----| ..... ..... .....
|---------------------------------------------------||------------------------------------------- -------||------------------------------------------- -------||----------------------------------------*-- --9- \ ||--2-2-2--2--2--2-2-2--2--2--2-----------2-- --7- \ ||--0-0-0--0--0--0-0-0--0--0--0----3-3-0--0----------| ........................ .....
| |-----------------------------------------------|| |-----------------------------------------------||7|-----------------------------------------------||/|--4-4-4--5----5----4-4-4--4-4-4--4-4-4--4-4-4--||8|--2-2-2--3----3----2-2-2--2-2-2--2-2-2--2-2-2--|| |-----------------------------------------------| ..... ..........................
| |---------------------------------------------------------------|| |---------------------------------------------------------------||4|---------------------------------------------------------------||/|--4--4-4-4-4-4-4-(5\4)----4--4--4-4-4-4-4-4-4-4-(5\4)----4--4--||4|--2--2-2-2-2-2-2-(3\2)----0--2--2-2-2-2-2-2-2-2-(3\2)----0--2--|| |---------------------------------------------------------------| ........... ...............
|--------------------------------------------------------------||--------------------------------------------------------------||--------------------------------------------------------------||--4-4-4-4-4-4-4-4-(5\4)----4--4--4-4-4-4-4-4-4-4--------5--4--||--2-2-2-2-2-2-2-2-(3\2)----0--2--2-2-2-2-2-2-2-2--3--2--------||--------------------------------------------------------------| ............... ........................
|-------------------------------------------------------------||-------------------------------------------------------------||-------------------------------------------------------------||--4--4-4-4-4-4-4-(5\4)----4--4--4-4-4-4-4-4-4-4-(5\4)-----4--||--2--2-2-2-2-2-2-(3\2)----0--2--2-2-2-2-2-2-2-2-(3\2)-----0--||-------------------------------------------------------------| ........... ............... ...
|-------------------------------------------------------------||-------------------------------------------------------------||-------------------------------------------------------------||--4--4-4-4-4-4-4-(5\4)----4--4--4-4-4-4-4-4-4-4--------5--4--||--2--2-2-2-2-2-2-(3\2)----0--2--2-2-2-2-2-2-2-2--3--2--------||-------------------------------------------------------------| ........... ...........................
| |------------------------||| |------------------------|||2|------------------------|||/|--------------*---------|||4|--2-----------2----2----||| |--0----3-3-0--0----0----|| .....
Innocence torn from me without your shelter Barred reality I'm living blindly ================================================================================ Part 4: Repeat Part 2 [ Time 02:18 - 03:02 ] ================================================================================ Dear mother, dear father Time has frozen still what's left to be Hear nothing, say nothing Cannot face the fact I think for me No guarantee, it's life "as is" But damn you for not giving me my chance Dear mother, dear father You clipped my wings before I learned to fly Unspoiled, unspoken I've outgrown that fucking lullaby Same thing I've always heard from you "Do as I say, not as I do" ================================================================================ Part 5: Repeat Part 3 with the following variations [ Time 03:02 - 03:23 ] ================================================================================ Replace the last bar with the following:
| |------------------------------------------------------------------------||| |------------------------------------------------------------------------|||5|------------------------------------------------------------------------|||/|--4--4-4-4-4-4-4-(5\4)----4--4--4-4-4-4-4-4-4-4-4--5--4--5--------------|||4|--2--2-2-2-2-2-2-(3\2)----0--2--2-2-2-2-2-2-2-2-2--3--2--3--0--3--0--3--||| |------------------------------------------------------------0--1--0--1--|| ........... ......................................
================================================================================ Part 6: Guitars 1 & 2 [ Time 03:23 - 03:37 ] ================================================================================
| |----------------------------------------|| |------------------------------------- -||7|------------------------------------- -||/|-----------------------------------*- -||8|--2----x--x--3----x--x--2----x--x--5- -|| |--0----x--x--1----x--x--0----x--x--3----|
|-----------------------------------------||-----------------------------------------||-----------------------------------------||-----------------------------------------||--2----x--x--3----x--x--2----x--x--------||--0----x--x--1----x--x--0----x--x--0--1--| ....
|----------------------------------------||------------------------------------- -||------------------------------------- -||-----------------------------------*- -||--2----x--x--3----x--x--2----x--x--5- -||--0----x--x--1----x--x--0----x--x--3----|
|-----------------------------------------||-----------------------------------------||-----------------------------------------||-----------------------------------------||--2----x--x--3----x--x--2----------------||--0----x--x--1----x--x--0----0--1--0--1--| ..........
|----------------------------------------||------------------------------------- -||------------------------------------- -||-----------------------------------*- -||--2----x--x--3----x--x--2----x--x--5- -||--0----x--x--1----x--x--0----x--x--3----|
| |-----------------------------------------------------||| |-----------------------------------------------------|||9|-----------------------------------------------------|||/|-----------------------------------------4--5--4--5--|||8|--2----x--x--3----x--x--2----------------2--3--2--3--||| |--0----x--x--1----x--x--0----0--1--0--1--------------|| ......................
================================================================================ Guitar Solo: Guitars 1, 2 & Lead Guitar [ Time 03:37 - 04:23 ] ================================================================================ -------------- Guitars 1 & 2: --------------
||---------------------------------------------------------------|||---------------------------------------------------------------|||---------------------------------------------------------------|||-----------------(3\2)----0--2------------------(3\2)----0--2--|||--2--2-2-2-2-2-2-(3\2)----0--2--2-2-2-2-2-2-2-2-(3\2)----0--2--|||--0--0-0-0-0-0-0----------------0-0-0-0-0-0-0-0----------------| ........... ...............
|------------------------------------------------------------| ||------------------------------------------------------------| ||------------------------------------------------------------|*||-----------------(3\2)----0--2------------------------------|*| x 2|--2--2-2-2-2-2-2-(3\2)----0--2--2-2-2-2-2-2-2-2-2--3--2--3--| ||--0--0-0-0-0-0-0----------------0-0-0-0-0-0-0-0-0--1--0--1--| | ........... ..........................
||---------------------------------------------------------------|||---------------------------------------------------------------|||---------------------------------------------------------------|||---------------------------------------------------------------|||--4--4-4-4-4-4-4-(5\4)----4--4--4-4-4-4-4-4-4-4-(5\4)----4--4--|||--2--2-2-2-2-2-2-(3\2)----0--2--2-2-2-2-2-2-2-2-(3\2)----0--2--| ........... ...............
|_____________________________________________________________[1]|-------------------------------------------------------------| ||-------------------------------------------------------------| ||-------------------------------------------------------------|*||-------------------------------------------------------------|*| x 2|--4-4-4-4-4-4-4-4-(5\4)----4--4--4-4-4-4-4-4-4-4-4--5--4--5--| ||--2-2-2-2-2-2-2-2-(3\2)----0--2--2-2-2-2-2-2-2-2-2--3--2--3--| | ............... ..........................
|____________________________________________________________________________[2]| |----------------------------------------------------------------------------|| |----------------------------------------------------------------------------||5|----------------------------------------------------------------------------||/|----------------------------------------------------------------------------||4|--4-4-4-4-4-4-4-4-(5\4)----4--4--4-4-4-4-4-4-4--4-4-4--4-4-4--4-4-4--4-4-4--|| |--2-2-2-2-2-2-2-2-(3\2)----0--2--2-2-2-2-2-2-2--2-2-2--2-2-2--2-2-2--2-2-2--| ............... .........................................
| |--------------------|-----------------------|| |--------------------|-----------------------||4|--------------------|-----------------------||/|--------------------|--2---------------4-5--||4|--4--------5--------|--0--------2------2-3--|| |--2--------3--------|-----------0-----------| ...
|---------------------------------------------------------------||---------------------------------------------------------------||---------------------------------------------------------------||---------------------------------------------------------------||--4--4-4-4-4-4-4-(5\4)----4--4--4-4-4-4-4-4-4-4-(5\4)----4--4--||--2--2-2-2-2-2-2-(3\2)----0--2--2-2-2-2-2-2-2-2-(3\2)----0--2--| ........... ...............
| |----------------------------------------------------------------------------|| |----------------------------------------------------------------------------||5|----------------------------------------------------------------------------||/|----------------------------------------------------------------------------||4|--4-4-4-4-4-4-4-4-(5\4)----4--4--4-4-4-4-4-4-4--4-4-4--4-4-4--4-4-4--4-4-4--|| |--2-2-2-2-2-2-2-2-(3\2)----0--2--2-2-2-2-2-2-2--2-2-2--2-2-2--2-2-2--2-2-2--| ............... .........................................
| |------------------------------|| |------------------------------||2|------------------------------||/|------------------------------||4|--4-4-4--4-4-4--4-4-4--4-4-4--|| |--2-2-2--2-2-2--2-2-2--2-2-2--| ..........................
| |---------------------------------------------------------------|| |---------------------------------------------------------------||4|---------------------------------------------------------------||/|-----------------(3\2)----0--2------------------(3\2)----0--2--||4|--2--2-2-2-2-2-2-(3\2)----0--2--2-2-2-2-2-2-2-2-(3\2)----0--2--|| |--0--0-0-0-0-0-0----------------0-0-0-0-0-0-0-0----------------| ........... ...............
|------------------------------------------------------------||------------------------------------------------------------||------------------------------------------------------------||-----------------(3\2)----0--2------------------------------||--2--2-2-2-2-2-2-(3\2)----0--2--2-2-2-2-2-2-2-2-2--3--2--3--||--0--0-0-0-0-0-0----------------0-0-0-0-0-0-0-0-0--1--0--1--| ........... ..........................
|----------------------|---------------------------------------||----------------------|---------------------------------------||--11------ \ 7--------|---------------------------------------||--11------ \ 7--------|---------------------------------------||--9------- \ 5--------|--7------------------------------------||----------------------|--5--------3-3-3--3-3-3--3-3-3--3-3-3--| ..........................
|-------------------------------------------| |-------------|||--------------------------------- -----| |----- --|||--------------------------------- -----|2|----- --|||------------------------------*-- -----|/|--*-- --|||------------------------------5-- --5--|4|--5-- --|||--3-3-3--3-3-3--3-3-3--3-3-3--3---------3--| |--3----------|| .......................... ...
------------ Lead Guitar: with wha, delay and distortion ------------
// Segue From Part 6 \\| |---------------------------| || |-- ----------| ||9|-- --(14b16)-|4||/|-- ----------|/||8|-- ----------|4|| |---------------------------| |
|--------12--------------12--------------12-----------------12--------||--12-------15 p12----------15 p12---------12h15p 12-----------15 p12-||-(14b16)---------(14b16)---------(14b16)------------(14b16)----------||---------------------------------------------------------------------||---------------------------------------------------------------------||---------------------------------------------------------------------|
|-15p12----12-15p12-12-12-15p12---12-(15p12/14)----||-------15----------x----------15---------------14-||--------------------------------------------------||--------------------------------------------------||--------------------------------------------------||--------------------------------------------------|
|__3___| |__3___||--17p14-17p14-------19 p14--17p14-17p14----19--14/ (22b24)---(22b24)~~----||-------------(17b19)--------------------16----------------------------- --||----------------------------------------------------------------------- --||----------------------------------------------------------------------- --||----------------------------------------------------------------------- --||--------------------------------------------------------------------------|
% - Gradually pull bar up 1 & 1/4 steps|--%------------------------||--12------------12---------||--12------------12---------||--12------------12-14~~-12-||---------------------------||---------------------------|
|-----------------------------------------------------------------||------------------------------------------------------------- --||------------------------------------------------------------- --||--12h14-12--------------------------------------------------- --||-----------14--13--12--10--12--(12b 13r12)-10h12-12--10------ --||---------------------------------------------------------12~~----|
|------------------------------------(14h15p || / 15-----14---15p14-----14-15--17----------||---------------------16---------------------||--------------------------------------------||--------------------------------------------||--------------------------------------------|
| 14)----(15/17)--(17/19)---(17p15p14)--------(14/||-----17-------------------------------17-15\ ----||-------------------------------------------------||-------------------------------------------------||-------------------------------------------------||-------------------------------------------------|
| 17)--(15\14)-15p14------------------------------||-------------------15p14--17-17--15-14h15--14----||----------------------------------------------16-||-------------------------------------------------||-------------------------------------------------||-------------------------------------------------|
|-----------------------------------------||-14--------------------------------------||---16--14-(16b18p14)----14h16~~-------14-||--------------------16------------/16----||-----------------------------------------||-----------------------------------------|
// Let Ring \\|---------------------------------------------------------------------||--17----17\ ---15\ --14----------------------------------------------||-----13-----11-----9----9/ (16p14 p13)-(14p13 p11)-(14p13 p11)-------||---------------------------------------------------------------12~~--||---------------------------------------------------------------------||---------------------------------------------------------------------|
| |----------------------------------------------------------------------------|| |------------------------------------------------------------------ --||5|------------------------------------------------------------------ --||/|--(14p12 p11)-(<12>p11p9\7)-9b10-(7\6)--7 \ 4-6p4---4------------- --||4|--------------------------------------------------7----7 \ 4 /9 \- --|| |----------------------------------------------------------------------------|
|-------------------------------------|----------------------------------------||-------------------------------------|----------------------------------------||---------6-6h7-6-------4-5--5h7-5--4-|----6-7--7h9-7--6-7-(6h7p6)--4----------||-------7----------7-5----------------| /7-----------------------------7--5--4-||-- /9--------------------------------|----------------------------------------||-------------------------------------|----------------------------------------|
|_3_| |_3_||----------------------------------------------------------------------||----------------------------------------------------------------------||----------------------------------------------------------------------||--5p4p0-5p4p0-5p4p0-5p4p0-5p4-5p4p0-7p5p0-7p5p0-7p5p0-7p5p0-7p5-7p5p0-||----------------------------------------------------------------------||----------------------------------------------------------------------|
|_3_| |__3_| |__3__||------------------------------------------------------------------------||------------------------------------------------------------------- --||-----------------------------------------------------------11-- \-- --||--9p7p0-9p7p0-9p7p0-11p9p0-11p9-11p9p0-12p11-12p11-12p11p0--------- --||------------------------------------------------------------------- --||------------------------------------------------------------------------|
| |-----------|| |-- --||2|-- --||/|-- --||4|-- --|| |-----------|
| |--17p12-----12-17p12-12-17p12-12h17 p12----12-17p12-12h|| |---------15-----------------------------15-------------||4|-------------------------------------------------------||/|-------------------------------------------------------||4|-------------------------------------------------------|| |-------------------------------------------------------|
|__3__||-17 p12----17 p12-12------17p12--17p12---17p12h17-12----||--------15----------------------------15-------------15-||--------------------------------------------------------||--------------------------------------------------------||--------------------------------------------------------||--------------------------------------------------------|
|__3__| |__3__| |__3__| |__3__| |__3__| |__3__| |__3__| |__3__||--19p15p0-19p15p0-19p15p0-19p15p0-19p15p0-19p15p0-19p15p0-19p15p0-||------------------------------------------------------------------||------------------------------------------------------------------||------------------------------------------------------------------||------------------------------------------------------------------||------------------------------------------------------------------|
|__3__| |__3__| |-19p15p0-19p15p0-19 p15 p0-19 /(22b25)--(22b25)--||---------------------------0---------------------||-------------------------------------------------||-------------------------------------------------||-------------------------------------------------||-------------------------------------------------|
|___3__| |__3__||----------------------------------------||------------------- /10--8--7-----------||--------6-6h7-6----------------9--7--6--||-----7-----------7----------------------||--9-------------------------------------||----------------------------------------|
|__3__| |__3__| |_3_||-------------------------------------------------------||-------------------------------------------------------||--4--6--4-----4----------------------------------------||-----------7-----7 \ 5-5-5-5 /7-7/9-9--9-9-10-10-10/12-||-------------------------------------------------------||-------------------------------------------------------|
|----------------------------------------||----------------------------------------||----------------------------------------||--12-12-12/14-14--14/16-16-16-16-17-17\ ||----------------------------------------||----------------------------------------|
|_3_| |--------------------------------------------|
|(8 h10 p 8 p0 h7h8 p7 p 0h5h7p5p0h3h5p3p0)--||--------------------------------------------||--------------------------------------------||--------------------------------------------||--------------------------------------------|
|_3_| |__3__| |_3_||-------------------------------------------------|||-------------------------------------------------|||--(4h5p4p0 h 4h5h7p5p0 h6/7h9p7 p0 h7/9-11p9p0)--|||-------------------------------------------------|||-------------------------------------------------|||-------------------------------------------------||
================================================================================ Part 7: Guitars 1 & 2 [ Time 04:23 - 04:50 ] ================================================================================
||------------------------------------------------------------|||------------------------------------------------------------|||------------------------------------------------------------|||----------------(3\2)----0--2----------------(3\2)----0--2--|||--2--2-2-2--2-2-(3\2)----0--2--2--2-2-2--2-2-(3\2)----0--2--|||--0--0-0-0--0-0----------------0--0-0-0--0-0----------------| ............. .............
|---------------------------------------------------------||---------------------------------------------------------||---------------------------------------------------------||----------------(3\2)----0--2----------------------------||--2--2-2-2--2-2-(3\2)----0--2--2--2-2-2--2-2-2--3--2--3--||--0--0-0-0--0-0----------------0--0-0-0--0-0-0--1--0--1--| ............. ........................
|---------------------------------------------------------||---------------------------------------------------------||---------------------------------------------------------||----------------(3\2)----0--2----------------(3\2)----0--||--2--2-2-2--2-2-(3\2)----0--2--2--2-2-2--2-2-(3\2)----0--||--0--0-0-0--0-0----------------0--0-0-0--0-0-------------| ............. ............. ...
|------------------------------------------------------||-------------------------------------------------- ---||-------------------------------------------------- ---||--2-------------(3\2)----0--2-------------------*- ---||--2--2-2-2--2-2-(3\2)----0--2--2--2-2-2--2-2-2--3- -3-||-----0-0-0--0-0----------------0--0-0-0--0-0-0--1---1-| .......... ...............
|------------------------------------------------------------||------------------------------------------------------------||------------------------------------------------------------||----------------(3\2)----0--2----------------(3\2)----0--2--||--2--2-2-2--2-2-(3\2)----0--2--2--2-2-2--2-2-(3\2)----0--2--||--0--0-0-0--0-0----------------0--0-0-0--0-0----------------| ............. .............
|---------------------------------------------------------||---------------------------------------------------------||---------------------------------------------------------||----------------(3\2)----0--2----------------------------||--2--2-2-2--2-2-(3\2)----0--2--2--2-2-2--2-2-2--3--2--3--||--0--0-0-0--0-0----------------0--0-0-0--0-0-0--1--0--1--| ............. ........................
|---------------------------------------------------------||---------------------------------------------------------||---------------------------------------------------------||----------------(3\2)----0--2----------------(3\2)----0--||--2--2-2-2--2-2-(3\2)----0--2--2--2-2-2--2-2-(3\2)----0--||--0--0-0-0--0-0----------------0--0-0-0--0-0-------------| ............. ............. ...
|---------------------------------------------------------||---------------------------------------------------------||---------------------------------------------------------||----------------(3\2)----0--2----------------------------||--2--2-2-2--2-2-(3\2)----0--2--2--2-2-2--2-2-2--3--2--3--||--0--0-0-0--0-0----------------0--0-0-0--0-0-0--1--0--1--| ............. ........................
| |----------------------------------------|| |----------------------------------------||7|----------------------------------------||/|-------------*----------------*---------||8|--2----------2----2-----------2----2----|| |--0---3-3-0--0----0----3-3-0--0----0----| ..... .....
|-----------------------------------------||-------- ------- ----------------------||-------- ------- ----------------------||------*- -----*- -----*----------------||------2- -----2- -----2----------------||--3-3-0----3-3-0----3-3-0--0-0-0--0-0-0--| ... ... ... ............
| |--------------------------------------||| |--------------------------------------|||3|--------------------------------------|||/|----------------------------*---------|||4|----------------2-----------2----2----||| |--0-0-0--0-0-0--0----3-3-0--0----0----|| ............ .....
I'm in hell without you Cannot cope without you two Shocked at the world that I see Innocent victim, please rescue me ================================================================================ Part 8: Guitars 1 & 2 [ Time 04:50 - 05:13 ] ================================================================================
| |--------------------|-----------------------|--------------------|| |--------------------|-----------------------|--------------------||4|--------------------|-----------------------|--------------------||/|--------------------|--2---------------4-5--|--------------------||4|--4--------5--------|--0--------2------2-3--|--4--------5--------|| |--2--------3--------|-----------0-----------|--2--------3--------| ...
|-----------------------|----------------------|----------------------||-----------------------|----------------------|--------------- --||-----------------------|--11------ \ 7--------|--------------- --||-----------2-----------|--11------ \ 7--------|------------*-- --||--2--------0------4-5--|--9------- \ 5--------|--7------ \ 5-- --||--0---------------2-3--|----------------------|--5------ \ 3---------| ...
| |-------------------------|--------------------------|| |-------------------------|--------------------------||2|-------------------------|--------------------------||/|--x-x-x--x--x-x-x--x--5--|--4--5--4--5--------------||4|--x-x-x--x--x-x-x--x--3--|--2--3--2--3--0--3--0--3--|| |-------------------------|--------------0--1--0--1--| ......................
| |--------------------------------------|| |--------------------------------------||7|--------------------------------------||/|--------------------------------------||8|--2----------3----------2----------5--|| |--0----0--0--1----0--0--0----0--0--3--| .... .... ....
|-----------------------------------------| |------|||-----------------------------------------| |------|||-----------------------------------------|1|------|||-----------------------------------------|/|--*---|||--2----------3----------2-------3-----3--|8|--2---|||--0----0--0--1----0--0--0----0--1--0--1--| |--0---|| .... .... ..........
Dear mother, dear father Hidden in your world you've made for me I'm seething, I'm bleeding Ripping wounds in me that never heal Undying spite I feel for you Living out this hell you always knew ================================================================================ End ================================================================================ Tab summary: Intro Part 1 Part 2 Part 3 Part 4 Part 5 Part 7 Guitar Solo Part 8 END
Tap to rate this tab
 
# A B C D E F G H I J K L M N O P Q R S T U V W X Y Z