Metallica - Today You Love tab

Band- Metallica
Song- Today You Love
Album- Frantic Single
Tuning- 3 steps down

:---------------------------------------------------|:---------------------------------------------------|:---------------------------------------------------|:--5-----------2------2------2-----2-----2------2-2-|:--3---5-------2------2------2-----2-----2------2-2-|:------3---0-0----0-0----0-0---0-0---0-0---0-0--0-0-|
:--------------------------|:--------------------------|:--------------------------|:-7-7-7-7-7-7-7--9-9-9-9-9-|:-5-5-5-5-5-5-5--7-7-7-7-7-|:--------------------------|
:--------------------------|:--------------------------|:--------------------------|:-7-7-7-7-7-7-7--9-9-9-9-9-|:-5-5-5-5-5-5-5--7-7-7-7-7-|:--------------------------|
:--------------------------|:--------------------------|:--------------------------|:-7-7-7-7-7-7-7--9-9-9-9-9-|:-5-5-5-5-5-5-5--7-7-7-7-7-|:--------------------------|
verse:---------------------------------------------------|:---------------------------------------------------|:---------------------------------------------------|:--5-----------2------2------2-----2-----2------2-2-|:--3---5-------2------2------2-----2-----2------2-2-|:------3---0-0----0-0----0-0---0-0---0-0---0-0--0-0-|
:--------------------------|:--------------------------|:--------------------------|:-7-7-7-7-7-7-7--9-9-9-9-9-|:-5-5-5-5-5-5-5--7-7-7-7-7-|:--------------------------|
:--------------------------|:--------------------------|:--------------------------|:-7-7-7-7-7-7-7--9-9-9-9-9-|:-5-5-5-5-5-5-5--7-7-7-7-7-|:--------------------------|
:--------------------------|:--------------------------|:--------------------------|:-7-7-7-7-7-7-7--9-9-9-9-9-|:-5-5-5-5-5-5-5--7-7-7-7-7-|:--------------------------|
:--------------------------|:--------------------------|:--------------------------|:-7-7-7-7-7-7-7--9-9-9-9-9-|:-5-5-5-5-5-5-5--7-7-7-7-7-|:--------------------------|
verse:---------------------------------------------------|:---------------------------------------------------|:---------------------------------------------------|:--5-----------2------2------2-----2-----2------2-2-|:--3---5-------2------2------2-----2-----2------2-2-|:------3---0-0----0-0----0-0---0-0---0-0---0-0--0-0-|
:--------------------------|:--------------------------|:--------------------------|:-7-7-7-7-7-7-7--9-9-9-9-9-|:-5-5-5-5-5-5-5--7-7-7-7-7-|:--------------------------|
:--------------------------|:--------------------------|:--------------------------|:-7-7-7-7-7-7-7--9-9-9-9-9-|:-5-5-5-5-5-5-5--7-7-7-7-7-|:--------------------------|
:--------------------------|:--------------------------|:--------------------------|:-7-7-7-7-7-7-7--9-9-9-9-9-|:-5-5-5-5-5-5-5--7-7-7-7-7-|:--------------------------|
:------------------------------|:------------------------------|:------------------------------|:-7-7-7-7-7-7-7--9--9--9--9--9-|:-5-5-5-5-5-5-5--7--7--7--7--7-|:------------------------------|
:---------------------------------|:---------------------------------|:---------------------------------|:----------------7-7-7--9-9-9-9-9-|:---7-5-7-7-7----5-5-5--7-7-7-7-7-|:-0-5-3-5-5-5-0-------------------|
fdbk:-----------------------------------------|:-----------------------------------------|:-----------------------------------------|:-----------------------------------------|:---2-------------------------------------|:-0-0-------------------------------------|
:----------------------------------------------------------------------------------------|:-4bfp2-4b~~~~~---2-2-2-0---4bfp2-4b~~~~~---2-2-2-0---4bfp2-4b~~~~~---2-2-2-0--4bfp2-----|:------------------------------------------------------------------------------------0---|:----------------------------------------------------------------------------------------|:----------------------------------------------------------------------------------------|:----------------------------------------------------------------------------------------|
ENJOY!!!!
Tap to rate this tab
 
# A B C D E F G H I J K L M N O P Q R S T U V W X Y Z