Metallica - Live Shit Binge And Purge Mexico City Disc 2 tab

Band- Metallica
Album- Live Shit Binge And Purge Mexico City Disc 2

1.THROUGH THE NEVER

16x Riff A 3x Fill 1 Riff A 3x ||----------|--------|-----------------||---------------| |----------|||----------|--------|-----------------||---------------| |----------|||.--------.|--------|.---------------.||---------------| |----------|||.--------.|--------|.---------------.||---------------| |----------|||-----4----|-2-2---5|-----4-------3---||-----4-------5-| |-2-2---5--|||-0-2---2--|-0-0---3|-0-2---2-0-2---2-||-0-2---2-0-2-3-| |-0-0---3--| PM..... PM............. PM.........
Riff A 3x Fill 1 Riff A 3x |-------------------------| |-------------------------| |---------2-3-2-0---------| |---------2-3-2-0-3-2-0-3-| |-2-2-------------3-2-0-3-| |-0-0---------------------| PM.....
Rhy Fig 1|---------|---------|---------|---------|-----------|---------------------||---------|---------|---------|---------|-----------|---------------------||.--------|---------|---------|---------|---2----3--|-2-3-2-0------------.||.--------|---------|---------|---------|---2----3--|---------3-2-0-2-3P2.||---------|---------|---------|---------|-----------|---------------------||-0-0-0-0-|-0-0-0-0-|-0-0-0-0-|-0-0-0-0-|-0----0----|---------------------|
PM................................... PM PM 3x|---------|---------|---------|---------|-----------|---------|---------||---------|---------|---------|---------|-----------|---------|---------||.--------|---------|---------|--------.|---2----3--|---------|---------||.--------|---------|---------|--------.|---2----3--|---------|---------||---------|---------|---------|---------|-----------|---------|---------||-0-0-0-0-|-0-0-0-0-|-0-0-0-0-|-0-0-0-0-|-0----0----|-0-0-0-0-|-0-0-0-0-| PM................................... PM PM PM...............
|---------|---------|---------|---------|---------|---------|---------||---------|---------|---------|---------|---------|---------|---------||---------|---------|---------|---------|---------|---------|---------||---------|---------|---------|---------|---------|---------|---------||---------|---------|---------|---------|---------|---------|---------||-0-0-0-0-|-0-0-0-0-|-3-3-3-3-|-3-3-3-3-|-3-3-3-3-|-3-3-3-3-|-2-2-2-2-|
PM................................................................. end Rhy Fig 1|---------|---------|---------|-----------|-----------------||---------|---------|---------|-----------|-----------------||---------|---------|---------|---2----3--|-2-3-2-0---------||---------|---------|---------|---2----3--|---------3-2-0-3-||---------|---------|---------|-----------|-----------------||-2-2-2-2-|-2-2-2-2-|-2-2-2-2-|-0----0----|-----------------| PM......................... PM PM
GTR I (Rhy Fig 2) (end Rhy Fig 2)|-----------------|-----------------|-----------------|-------------------||-----------------|-----------------|-----------------|-------------------||-----------------|-----------------|-----------------|-------------------||-----------------|-----------------|-----------------|-------------------||-----4-------3---|-----4-------3---|-----4-------3---|-----4-------3-----||-0-2---2-0-2---2-|-0-2---2-0-2---2-|-0-2---2-0-2---2-|-0-2---2-0-2---2---|
| PM............. | ............... | ............... | ............... || | | | ||GTR II(Rhy Fig 2)| | | (end Rhy Fig 2)||-----------------|-----------------|-----------------|-------------------||-----------------|-----------------|-----7-----------|-------------------||-----------------|-----------------|--------6--5--4--|-------------------||-----------------|-----------------|-----------------|-----4-------------||-----4-------3---|-----4-------3---|-----------------|--------4--3--2----||-0-2---2-0-2---2-|-0-2---2-0-2---2-|-----------------|-------------------|
PM............. ............... ________________________ Rhy Fig 3 | 3x 3x Riff A 3x Fill 1 Riff A 3x|------------||----------|-----||------------||----------|-----||.----------.||.--------.|-----||.----------.||.--------.|-----||-2-4--4-----||-2-4--2-4-|-5---||-0-2--2-2-2-||-0-2--0-2-|-3---|
Rhy Fig 1 Rhy Fig 2 Rhy Fig 3|-------------------------| |---------------||-------------------------| |---------------||---------2-3-2-0---------| |-2-3-2-0-------||---------2-3-2-0-3-2-0-3-| |---------3-2-0-||-2-2-------------3-2-0-3-| |---------------||-0-0---------------------| |---------------|
PM..... (solo) 14x 14x 3x 6x|-------------||---------|-------------||---------|------------|-----||-------------||---------|-------------||---------|------------|-----||-------------||.-------.|------------.||.-------.|.----------.|.---.||-------------||.2-4-4-4.|------------.||.-------.|.----------.|.---.||-4-2--2--2-2-||-0-2-2-2-|-4-2--2--2-2-||-5-7-7-7-|-2-4--4-----|-2-4-||-2-0--0--0-0-||---------|-2-0--0--0-0-||-3-5-5-5-|-0-2--2-2-2-|-0-2-| Heavy PM... Heavy PM... PM..................
|---------|---------|---------|---------|---------|---------|---------||---------|---------|---------|---------|---------|---------|---------||---------|---------|---------|---------|---------|---------|---------||---------|---------|---------|---------|---------|---------|---------||---------|---------|---------|---------|---------|---------|---------||-0-0-0-0-|-0-0-0-0-|-0-0-0-0-|-0-0-0-0-|-0-0-0-0-|-0-0-0-0-|-0-0-0-0-|
PM................................................................. 12x 4x|---------|---------|----------|--------------------|----------|---------||---------|---------|----------|--------------------|----------|---------||---------|---------|.---------|-------------------.|----------|.-------.||---------|---------|.---------|-------------------.|----------|.-------.||---------|---------|-2------5-|-----------5--7P5---|-2-4--2-4-|-----3---||-0-0-0-0-|-0-0-0-0-|-0--0-0-3-|-0-0-/6(6)--------6-|-0-2--0-2-|-0-2---2-| PM............... PM. PM.
Rhy Fig 2 Rhy Fig 3 |---| Riff A 3x |-----| |---| |-----| |---| |-----| |---| |-----| |-5-| |-5-5-| |-3-| |-3-3-|
2.FOR WHOM THE BELL TOLLS
Guitar 1 (Hetfield)|-----------------------||-----------------------||-----------------------||---5-5----5-5----2-----||---5-5----5-5----2-----| x8|---3-3----3-3----0-----|
Guitar 2 (Hammet)|---------------------------------||---------------------------------||---------------------------------||--12-11-10-9-------12------------||--------------10-9---------------| x8|-----------------------10-9------|
Both|-------------------------||-------------------------||-------------------------||---5-5----5-5----2~------||---5-5----5-5----2~------| x4|---3-3----3-3----0~------|
|--------------------------------------||--------------------------------------||--------------------------------------||-------------------------------3------||---5-4-3-2-5-4-3-2-5-4-3-2-3-4-1------| x4|---3-2-1-0-3-2-1-0-3-2-1-0-1-2--------|
Guitar 1 (Hetfield)|-----------------------------------------------------------------||-----------------------------------------------------------------||----------------------5---------------------------5~-------------||---2~-------5~--------5---2~-----------5~---------5~--------7~---||---2~-------5~--------3---2~-----------5~---------3~--------7~---| x2|---0~-------3~------------0~-----------3~-------------------5~---|
Guitar 2 (Hammet)|------------------------||------------------------||---12-9-11-----9-11-----||------------12----------||------------------------| x30|------------------------|
Both|--------------------------------------------------------------||--------------------------------------------------------------||-----------------------------------------------------3--------||-2---5~--2---7~--2---5/8/4~--2---5~--2---7~--2---5---3--4--3--||-2---5~--2---7~--2---5/8/4~--2---5~--2---7~--2---5---1--4--3--| x2|-000-3~--000-5~--000-3/6/2~--000-3~--000-5~--0-003-00---2--1--|
|-----------------------------------------------------------------||-----------------------------------------------------------------||----------------------5---------------------------5~-------------||---2~-------5~--------5---2~-----------5~---------5~--------7~---||---2~-------5~--------3---2~-----------5~---------3~--------7~---| x2|---0~-------3~------------0~-----------3~-------------------5~---|
|--------------------------------------------------------------||--------------------------------------------------------------||-----------------------------------------------------3--------||-2---5~--2---7~--2---5/8/4~--2---5~--2---7~--2---5---3--4--3--||-2---5~--2---7~--2---5/8/4~--2---5~--2---7~--2---5---1--4--3--| x2|-000-3~--000-5~--000-3/6/2~--000-3~--000-5~--0-003-00---2--1--|
Guitar 1 (Hetfield)|--------------------------------------||--------------------------------------||--12-9-11----9------------------------||----------12---11-12--9-11----9-10----||---------------------------12---------| x3|--------------------------------------|
|------------------------------------------||------------------------------------------||--12-9-11----9-----------------------12~--||----------12---11-12--9-11----9-10--------||---------------------------12-------------| x2|------------------------------------------|
|-----------------------------------------------||----------------------------------------12~----||--12-9-11----9---------------------------------||----------12---11-12--9-11----9-10-------------||---------------------------12------------------||-----------------------------------------------|
Guitar 2 (Hammet)
|------------------------------------------------||------------------------------------------------||------------------------------------------------||--2~-------------------------------------2~-----||--2~-------------------------------------2~-----||--0~-------------------------------------0~-----|
|-------------------------------------------------------------------------||-------------------------------------------------------------------------||-------------------------------------------------------------------------||--2~------------------------------------5------5-5-5-5------5-5-5--------||--2~------------------------------------5------5-5-5-5------5-5-5--------||--0~------------------------------------3------3-3-3-3------3-3-3--------|
|------------------------------------------------||------------------------------------------------||----------------------------------------4~------||--2~------------------------------------4~------||--2~------------------------------------2~------||--0~--------------------------------------------|
|----------------------------------------------||----------------------------------------------||----------------------------------------------||--2~-------------------------------------2~---||--2~-------------------------------------2~---||--0~-------------------------------------0~---|
|--------------------------------------------------------------------||--------------------------------------------------------------------||--------------------------------------------------------------------||--2~------------------------------------5------5-5-5-5------5-5-5---||--2~------------------------------------5------5-5-5-5------5-5-5---||--0~------------------------------------3------3-3-3-3------3-3-3---|
|------------------------------------------------||------------------------------------------------||-----------------------------------------4~-----||--2~-------------------------------------4~-----||--2~-------------------------------------2~-----||--0~--------------------------------------------|
Both|-----------------------------------------------------------------||-----------------------------------------------------------------||----------------------5---------------------------5~-------------||---2~-------5~--------5---2~-----------5~---------5~--------7~---||---2~-------5~--------3---2~-----------5~---------3~--------7~---| x2|---0~-------3~------------0~-----------3~-------------------5~---|
|--------------------------------------------------------------||--------------------------------------------------------------||-----------------------------------------------------3--------||-2---5~--2---7~--2---5/8/4~--2---5~--2---7~--2---5---3--4--3--||-2---5~--2---7~--2---5/8/4~--2---5~--2---7~--2---5---1--4--3--| x2|-000-3~--000-5~--000-3/6/2~--000-3~--000-5~--0-003-00---2--1--|
|----------------------------------------------||----------------------------------------------||----------------------------------------------||---2~--------4-4----2~------4-4---5-5---------||---2~--------4-4----2~------4-4---5-5---------| x8 fading...|---0~--------2-2----0~------2-2---3-3---------|
3.FADE TO BLACK
Acoustic gtr.|------------------------|------------------------||------------------------|------------------------||-------0----------------|-------0----------------||----4-----4-----4-----4-|----4-----4-----4-----4-||-2-----------2-----5----|-0-----------0-----5----||------------------------|------------------------|
|------------------------|------------------------||------------------------|------------------------||-------0----------------|-------2----------------||----4-----4-----4-----4-|----2-----2-----2-----2-||-2-----------2-----5----|-4-----------4-----0----||------------------------|------------------------|
w/Flanger or chorus|----------------------------------------------------------||-----------------------------------------------7----------||--------------------------------------------7-(7)---------||--------------------------------------/-9-----------9-----||----------------------------------------------------------||----------------------------------------------------------|
|--------------------------|-----------------------||-----7--8-/-10------8--10-|-12---10---8---10------||--------------------------|-----------------------||--------------------------|-----------------------||--------------------------|-----------------------||--------------------------|-----------------------|
p p sl h p h|------------------------------|---------------------||-(10)---12^10^8-\-7^8^7-----7-|-7^8--7-----7--------||-------------------------9----|---------9-----9---7-||------------------------------|---------------------||------------------------------|---------------------||------------------------------|---------------------|
sl sl p|----------------------------|-----------------|-----||----------------------------|---------------8-|-7---||----------------------7-\-6-|----------7^6----|-----||-7---9----------(9)-\-------|-----------------|-----||----------------------------|-----------------|-----||----------------------------|-----------------|-----|
sl ~~~~~~~~~~~~~~|---------------------||-8-/-10--------------||---------------------||---------------------| |---------------------| |---------------------|
full p )\ ~~~~~~~~~~~~~|---14-19-14-----15^14---------------------/--\------------||-15--------15--------15---17-15-14-------/----\-----------||-------------16--------14---------16-14-/----(14)---------||----------------------------------------------------------||----------------------------------------------------------||----------------------------------------------------------|
h ~~~~~~~~~~ h h p|---------------------------------------------------------||---------------------------------14-15-14^15^14----14^15-||-14^16---------------------14-16----------------16-------||--------14----------14^16--------------------------------||---------------------------------------------------------||---------------------------------------------------------|
~~~~~~~~~~~~~~~~~|----19--17--15----------15--17-|-14----------------------||-14----------------------------|----15-------------------||-------------------------------|-------16----------------||-------------------------------|-------------------------||-------------------------------|-------------------------||-------------------------------|-------------------------|
|-14--15--14--------------14--15--14------17----15--14-----||---------------15--------------------15-------------------||------------------14--------------------------------------||----------------------------------------------------------||----------------------------------------------------------||----------------------------------------------------------|
h h|------------------------|---------12-13-15-12^13^15---17--||------------------------|-12-13-15------------------15----||------------------12-14-|---------------------------------||----------12-14-15------|---------------------------------||-12-14-15---------------|---------------------------------||------------------------|---------------------------------|
Acoustic gtr.|------------------------|---------------------------||------------------------|-------------------0----3--||------------------------|-------1--------1----------||-------0-----------2----|----2--------2-------------||----3-----------2-----2-|-2--------2----------------||-1--------1--4----------|---------------------------|
h h|----------0----------|------------0----------||-0^1---------------1-|-(1)---1-------------0-||-2---2---------0^2---|--0--------------0^2---||-2-----2-----2-------|--2------2-----2-------||-0-------------------|--3--------------------||---------------------|-----------------------|
sl|------------3-----3--3-|---------------------||-(0)---3---------------|---------0--(1)-/-3--||--0---------------2--0-|-0-------0--(2)-/-4--||---------0-----0-------|-----2---------------||-----------------------|-------2-------------||--3--------------------|-0-------------------|
h h h|----------0-----------|------------0----------||-0^1----------------1-|-(1)---1-------------0-||-2---2----------0^2---|--0--------------0^2---||-2-----2-----2--------|--2------2-----2-------||-0--------------------|--3--------------------||----------------------|-----------------------|
h p sl|-------------3-------------|-0------------------------||-(0)---3-------------------|-0----------0---(1)-/-3---||--0----------------0^2^0-0-|-0----------0---(2)-/-4---||----------0-----0----------|-2----2-------------------||---------------------------|---------2----------------||--3------------------------|----0---------------------|
P.M.--------------------| P.M.-------||------------------------|--------------------------||-5--5--5--5--5--5--5--5-|-0-------2--2-------------||-5--5--5--5--5--5--5--5-|-2-------2--2-------------||-2--2--2--2--2--2--2--2-|-2-------2--2-------------||------------------------|-0-------0--0-----------5-||-0--0--0--0--0--0--0--0-|---------------0--0--3----|
P.M.-------||--------------------------||-5-------5--5-------------||-5-------5--5-------------||-5-------5--5-------------||-3-------3--3-----------5-||---------------0--0--3----| P.M.--------||---------------------------------------------||-2-------2--2-----7---9-----9--9-------------||-2-------2--2-----7---9-----9--9-------------||-2-------2--2-----7---9-----9--9--------5--5-||-0-------0--0-----5---7-----7--7--------3--2-||----------------------------------0--0-------|
P.M.------| P.M.-------||--------------------------|--------------------------||-0-------2--2-------------|-5-------5--5-------------||-2-------2--2-------------|-5-------5--5-------------||-2-------2--2-------------|-5-------5--5-------------||-0-------0--0-----------5-|-3-------3--3-----------5-||---------------0--0--3----|---------------0--0--3----|
P.M.--||---------------------|------------||-2-------2--2--------|------------||-2-------2--2--------|-1----------||-2-------2--2--------|-2----------||-0-------0--0--5--5--|-2----------||---------------3--2--|-0----------|
~~~~~~~~~~~ ~~~~~ sl|---------------------|--------------------------||-10-----------10--12-|-13------13-/-15--13--12--||--9------------9--11-|-12------12-/-14--12--11--||---------------------|--------------------------||---------------------|--------------------------||---------------------|--------------------------|
~~~~~~~~~~~~~~~~ sl ~~~~~~~~~~~ sl sl|--------------------------|------------------------------||--------------------------|------------------------------||-12---------------12-/-14-|-9-----------9-/-11---11-/-12-||-12---------------12-/-14-|-9-----------9-/-11---11-/-12-||--------------------------|------------------------------||--------------------------|------------------------------|
full /\ sl ~~~~~~~~~~~~~~ ~~~~~~ ) )\|-----------------------------|-------------/-/--\---------||--------------------------12-|-13------15-/-/------13-----||-12-/-14--------------14--11-|-12------14--/-------12-----||-12-/-14--------------14-----|----------------------------||-----------------------------|----------------------------||-----------------------------|----------------------------|
full full full full /\ /\ /\ /\ ) ) ) ) ) ) ) )\ ~~~~~~~~~~~~~~~~~~~~~~~|----/-/-----/-/-----/-/-----/-/|-\------------------------||-15/-/---15/-/---15/-/---15/-/-|(15)----------------------||-14-/----14-/----14-/----14-/--|(14)----------------------||-------------------------------|--------------------------||-------------------------------|--------------------------||-------------------------------|--------------------------|
sl sl sl|---------------------|--------------------------||---------------------|--------------------------||-7-/-9-------9---9---|-7-/-9-------9-/-12--11---||-7-/-9-------9---9---|-7-/-9-------9-/-12--11---||-5-/-7-------7---7---|-5-/-7-------7-/-10---9---||---------------------|--------------------------|
P.M.------------------------||-----------------------|-------------------------------||-----------------------|-------------------------------||---7-------7---7-------|-----------------------------4-||---7-------7---7-------|-9-9-9--7-7-7--5-5-5--4-4-4----||---5-------5---5-------|-------------------------------||-----------------------|-------------------------------|
sl sl sl |---------------------|--------------------------||---------------------|--------------------------||-7-/-9-------9---9---|-7-/-9-------9-/-12--11---||-7-/-9-------9---9---|-7-/-9-------9-/-12--11---||-5-/-7-------7---7---|-5-/-7-------7-/-10---9---||---------------------|--------------------------|
P.M.------------------------||-----------------------|-------------------------------||-----------------------|-------------------------------||---7-------7---7-------|-------------------------------||---7-------7---7-------|-9-9-9--7-7-7--5-5-5--4-4-4--5-||---5-------5---5-------|-------------------------------||-----------------------|-------------------------------|
sl ~~~~~~~~ sl ~~~~~~~|--------------------------|------------------------------||-7-/-8-------8---8--------|-7-/-8-------8---12---10------||--------------------------|------------------------------||-7-/-9-------9---9--------|-7-/-9-------9---12---11------||--------------------------|------------------------------||--------------------------|------------------------------|
~~~~~~~ P.M.-----------------------------||---------------------|------------------------------------||-7-------7-----------|-12-12-12--10-10-10--8-8-8--7-7-7---||-------------7-------|------------------------------------||-7-------7---7-------|-12-12-12--11-11-11--9-9-9--7-7-7-9-||---------------------|------------------------------------||---------------------|------------------------------------|
sl ~~~~~~~ ~~~~~~~~|-------------------------|-------------------------------||-7-/-8-------8---8-------|-7---8-------8---12---10-------||-------------------------|-------------------------------||-7-/-9-------9---9-------|-7-/-9-------9---12---11-------||-------------------------|-------------------------------||-------------------------|-------------------------------|
~~~~~~~~~~~ P.M.-----------------------||--------------------------|-------------------------------||--------------------------|-7-7-7--5-5-5--3-3-3--2-2-2--3-||--11------11--11----------|-7-7-7--6-6-6--4-4-4--2-2-2--4-||---7-------7---7----------|-------------------------------||---9-------9---9----------|-------------------------------||--------------------------|-------------------------------|
P.M.--------| P.M.--------||----------------------|------------------------||----------------------|------------------------||--------------9-----9-|--------------12-11-----||--------------9-----9-|--------------12-11-----||--------------7-----7-|--------------10--9-----||-0--0--0--0-----------|-0--0--0--0-------------|
P.M.--------| P.M.------------------------||--------------------|---------------------------------||--------------7-----|---------------------------------||--------------7-----|------------------------------4--||--------------7-----|-9-9-9--7-7-7--5-5-5--4-4-4--(5)-||--------------5-----|---------------------------------||-0--0--0--0---------|---------------------------------|
sl P.M.-||-----------------------|--------------------------------||-----------------------|--------------------------------||-----------------------|--------------------------------||-------/-4-------2/5---|-(2/5)--4-------2---------------||-*2/5------------------|--------5-------4--2/5--4-------||-----------------------|------------------------5---2/5-|*Gtr. II indicated to left slash in TAB
sl P.M.-||---------------------|------------------------------||---------------------|------------------------------||---------------------|------------------------------||-------/-4-------2/5-|-(2/5)-4-------2--------------||-4-------------------|-------5-------4--2/5--4------||-5-------------------|-----------------------5--2/5-|
sl P.M.-||------------------------|------------------------------||------------------------|------------------------------||------------------------|------------------------------||--------/-4-------2/5---|-(2/5)-4-------2--------------||-2----------------------|-------5-------4--2/5--4------||-3----------------------|-----------------------5--2/5-|
sl P.M.--||-------------------------|----------------------------||-------------------------|----------------------------||-------------------------|----------------------------||---------/-4-------2/5---|-(2/5)-7--------5--4--2--4--||-4-----------------------|-------5--------4--2--------||-5-----------------------|----------------------5--2--|
Guitar Solo: Full Full Full sl ) ) )|------------------|------/-------/------/----||------------------|-----/-------/------/-----||----------------7-|---9/------9/-----9/------||-------/-9---9----|--------------------------||------------------|--------------------------||------------------|--------------------------|
Full )\ p |---------/--\-------------------||--------/----\---------------7--||-(9)--9/----(9)^7--9---9---9----||--------------------------------||--------------------------------||--------------------------------|
h h p h|----------------------------------||-7^8---7^8^7------7^8-------7-----||---------------7----------------7-||----------------------------------||----------------------------------||----------------------------------|
h sl h|-----------------------------------|----------------------||-7^8---7-----10---10---8---10-/-12-|-10---8--8^10---8---7-||----------7------------------------|----------------------||-----------------------------------|----------------------||-----------------------------------|----------------------||-----------------------------------|----------------------|
|-----------------------|----------------------------------||---8---10-----8--------|----------------------------------||-----------9-----9---7-|----------------------------7---9-||-----------------------|-----7-------9---9-------9--------||-----------------------|----------------------------------||-----------------------|----------------------------------|
Full )\ p |----/--\--------------------------||---/----\-------------------------||-9/----(9)^7--9---7---7-----7---9-||-------------------------9--------||----------------------------------||----------------------------------|
Full Full Full Full ) p ) p ) p )|----/--7---------/-7---------/-7---------/---||---/-----10^7---/----10^7---/----10^7---/--7-||-9/-----------9/----------9/----------9/-----||---------------------------------------------||---------------------------------------------||---------------------------------------------|
Full Full Full Full p ) p ) p ) p )|---------/----------/-7---------/-7---------/-7-||-10^7---/-7-10^7---/----10^7---/----10^7---/----||------9/---------9/----------9/----------9/-----||------------------------------------------------||------------------------------------------------||------------------------------------------------|
p p p p p|-10^7----7-10^7-10^7----7-10^7-10^7----7-||------10-------------10-------------10---||-----------------------------------------||-----------------------------------------||-----------------------------------------||-----------------------------------------|
p p p p p|-10^7----7-10^7-10^7----7-10^7-10^7----7-||------10-------------10-------------10---||-----------------------------------------||-----------------------------------------||-----------------------------------------||-----------------------------------------|
Full Full ) ) / /|-10/-----10/---10-8-7-8-7----|-7-------------------------||--------------------------10-|---10-8-10-8-7-8-7---7-----||-----------------------------|-------------------9---9-7-||-----------------------------|---------------------------||-----------------------------|---------------------------||-----------------------------|---------------------------|
p|----------------------|------7------------||--------------8^7---7-|-8-10---10-8-7-----||------------------9---|---------------9-7-||-7-----9---9----------|-------------------||----------------------|-------------------||----------------------|-------------------|
p ~~~~~~|-------------------|------7--8--7------7--8-||-----------8^7---7-|-8-10-------------------||---------------9---|------------------------||-7---9--9----------|------------------------||-------------------|------------------------||-------------------|------------------------|
|-10-8-7-8-7----7-------------|-------------------------||------------10---10-8-10-8-7-|-8-7---7-----------------||-----------------------------|-----9---9-7-9-7-6-7-6---||-----------------------------|-----------------------9-||-----------------------------|-------------------------||-----------------------------|-------------------------|
|------------------7--------|--------------7--------------||-----------7-8-10---10-8-7-|-8-7---7-8-10---10-8-7-8^7---||-----6-7-9-----------------|-----9---------------------9-||-7-9-----------------------|-----------------------------||---------------------------|-----------------------------||---------------------------|-----------------------------|
Full _____Grad. Release \ \3/4 Full Full Full Full \ \1/2 ) ) ) ) ) \ 1/4|----/-----/-----/-----/---|---/---------------------------||---/-----/-----/-----/----|--/----------------------------||-9/----9/----9/----9/-----|-9-9-9-9-9-9-9-9-9-9-9-9-9-9-9-||--------------------------|-------------------------------||--------------------------|-------------------------------||--------------------------|-------------------------------|
p|--------------10-10-10-------10-10-10-----10-10-10-||---------------7--7--7-------10-10-10-----10-10-10-||-9^7---7-------7--7--7--------7--7--7------7--7--7-||-----9----x-x----------x-x-x----------x-x----------||----------x-x----------x-x-x----------x-x----------||---------------------------------------------------|
Full Full Full ) ) )~~~~~~ p|----/-------/-------/-------------------||-10/-----10/-----10/---------10^7---7-8-||----------------------------------9-----||----------------------------------------||----------------------------------------||----------------------------------------|
h p ~~~~~~|------------------------|-------------------------||-7^8^7------------------|-------------------------||-------9-7---7--------7-|-9-7---7-----------------||-----------9--------9---|-----9---9-7-9-7---7-----||------------------------|-----------------9---9-7-||------------------------|-------------------------|
sl.|-------------------------12-||----------------------------||----------------------------||----------------------------||-9-7-5-7-5---5-5-5-5-7-/----||-----------7----------------|
p p p p p|-15^12--12-15^12-14^12--12-15^12-14^12--12-||------12--------------12--------------12---||-------------------------------------------||-------------------------------------------||-------------------------------------------||-------------------------------------------|
p p p p p|-15^12--12-15^12-14^12--12-15^12-14^12--12-||------12--------------12--------------12---||-------------------------------------------||-------------------------------------------||-------------------------------------------||-------------------------------------------|
p p p |-17-14--14-17^14--14-17^14--14-17^14--14-|\|------15--------15--------15--------15---| \|-----------------------------------------| \|-----------------------------------------| /-repeat|-----------------------------------------| /|-----------------------------------------|/
p p p p p |-19^15--15-19^15-17^15--15-19^15-17^15--15-| \|------17--------------17--------------17---| |-------------------------------------------| |-------------------------------------------| |-------------------------------------------| |-------------------------------------------|
p p p p p |-19^15--15-19^15-17^15--15-19^15-17^15--15-| |------17--------------17--------------17---| |-------------------------------------------| |-------------------------------------------| |-------------------------------------------| |-------------------------------------------|
p p p p |-21^17--17-21^17--17-21^17--17-21^17--17-| |------19--------19--------19--------19---| |-----------------------------------------| |-----------------------------------------| repeat |-----------------------------------------| |-----------------------------------------|
Full Full Full Full Full Full Full Full ) ) ) ) ) ) ) )~~~~~|-22/---22/---22/---22/---|-22/---22/---22/---22/------||-------------------------|----------------------------||-------------------------|----------------------------||-------------------------|----------------------------||-------------------------|----------------------------||-------------------------|----------------------------|
Full )\|-22/(22)-19-22-20-19-20-19-17-19-17-15-17-15-14-||------------------------------------------------||------------------------------------------------||------------------------------------------------||------------------------------------------------||------------------------------------------------|
|-15-14-12-14-12-10-12-10-9-10-9-7-||----------------------------------||----------------------------------||----------------------------------||----------------------------------||----------------------------------|
BEGIN FADE
|-9-7--7---7----------------|------------------------||----10--10--8-10-8-7-8-7---|-7----------------------||-------------------------9-|---9-7-9-7---7--7--7--7-||---------------------------|-----------9------------||---------------------------|------------------------||---------------------------|------------------------|
trem. pick Full Full Full ) )- - - - - - - - - - - - -( )|----/-----/----------------|----------\------/-----------||---/-----/-----------------|-----------\----/------7---7-||-9/-----9------------------|-(9)------(9)-9/-------------||-------//------------------|-//--------------------------||---------------------------|-----------------------------||---------------------------|-----------------------------|
Full Full ) )\ p|----/---7----/--\-----||-10/------10/--(10)^7-||----------------------||----------------------| repeat 2x|----------------------||----------------------|
Full Full Full Full )\ p )\ p ) )|----/--\----------/--\---------/----------/-------||-10/--(10)^7---10/-(10)^7---10/---10---10/---10---||--------------------------------------------------||--------------------------------------------------||--------------------------------------------------||--------------------------------------------------|
p p |-10^7--------------------------------||------10^7----7-10^7-----------------||-----------10--------9-7---7-9-7-----||-------------------------9-------9-7-||-------------------------------------||-------------------------------------|
p sl.|------------------------------------||------------------------------------||------------------------------------||-7-7-9^7------------------------7-9-||---------9-8-7-5-7-5---5--7-/-9-----||---------------------7--------------|
sl. p |------------------------------------12-15-||-------------11-12-13^12----12-x-15-------||-7-9-11-/-14-------------14---------------||------------------------------------------||------------------------------------------||------------------------------------------|
|-(15)^12----12-15^12-15^12----12-15^12-15^12----12-||---------15----------------15----------------15----||---------------------------------------------------||---------------------------------------------------||---------------------------------------------------||---------------------------------------------------|
Full Full Full Full ) ) ) )|-----/------------/------------/------------/--------||-15-/---------15-/---------15-/---------15-/---------||-14/----------14/----------14/----------14/----------||-----------------------------------------------------||-----------------------------------------------------||-----------------------------------------------------|
4.MASTER OF PUPPETS Intro
|---|---------------------||---|---------------------||-9-|---------------------||-9-|----12---11---(10)---||-7-|----12---11---(10)---||-0-|----10---9----(8)----|
|------------------------------------------------------------------||------------------------------------------------------------------||------------------------------------------------------------------||----------------------12--11--10----------------------------------| x4|----------------------12--11--10----------------------------------||-0-0-12-0-0-11-0-0----10--9---8----0-0-7-0-0-6-0-0-5-0-4-0-3-0-2--| ................. .............................
|--------------------------------------------------------------------||--------------------------------------------------------------------||--------------------------------------------------------------------||--------------------------------------------------------------------| x2|-----2-----3-----4-----3-----2-2-----2-----3------5\4---5\4---5\4---||-0-1---0-1---0-1---0-1---0-1-----0-1---0-1---0-0--3\2-0-3\2-0-3\2---| ...............................................
|--------------------------------------------------------------------||--------------------------------------------------------------------||-------------------------------------------------------------4------||-------------------------------------------------------------4------| |-----2-----3-----4-----3-----2-2-----2-----3-----4-----3-----2------| \|-0-1---0-1---0-1---0-1---0-1-----0-1---0-1---0-1---0-1---0-1--------| |
........................................................... | x2|--------------------------------------------------------------------| ||--------------------------------------------------------------------| /|--------------------------------------------------------------------| |--------------------------------------------------------------------||-----2-----3-----4-----3-----2-2-----2-----3------5\4---5\4---5\4---||-0-1---0-1---0-1---0-1---0-1-----0-1---0-1---0-0--3\2-0-3\2-0-3\2---| ...............................................
|--------------------------------------------------------------------||--------------------------------------------------------------------||--------------------------------------------------------------------||------------------2------8------8------8------8------8b-------------||-5\4---5\4---5\4--2----7------7------7------7------7----------------||-3\2-0-3\2-0-3\2--0--0------0------0------0------0------------------|
|--------------------------------------------------------------------||--------------------------------------------------------------------||--------------------------------------------------------------------||--------------------------------------------------------------------| x6|-----------------5/7--8\7--5/7------------------5/7--5/7------------||-0-0-0-0-0-0-0-0-3/5--6\5--3/5--0-0-0-0-0-0-0-0-3/5--3/5------------| ............... ...............
|--------------------------------------------------------------------||--------------------------------------------------------------------||--------------------------------------------------------------------||------------------4-4--5\4-4-4-------------------4---4--------------| x2|------------------0-2--3\2-0-2-------------------0h2-0h2------------||-2-2-2-2-2-2-2-2----------------2-2-2-2-2-2-2-2---------------------| ............... ...............
|-------------------||-------------------||-4-4-4-4-4-4-4-4---||-4-4-4-4-4-4-4-4---||-2-2-2-2-2-2-2-2---||-------------------|
|--------------------------------------------------------------------||--------------------------------------------------------------------||-9-------7--9------------------------------------------8------------||-9-------7--9------9------------------10--9------------8--9---------| x3|-7-------5--7--7-9---10-9h10----------10--9------------6--9---------||-0-0-0-0----------------------8-8-8-8-8---7----8-8-8-8----7---------| ..... ....... .......
|--------------------------------------------------------------------||--------------------------------------------------------------------||-9-------7--9-------------------------------------------------------||-9-------7--9------9------------------10--9----------------2-2---3-3||-7-------5--7--7-9---10-9h10----------10--9--9-7-6--6------2-2---1-1||-0-0-0-0----------------------8-8-8-8-8---7-----------8-7--0-0---1-1| ..... .......
|--------------------------------------------------------------------||--------------------------------------------------------------------||------------------------------------------------------------------5-||-------------------5------4-----2---7------5-----4----------9-----5-||-2------4------5---3--0-0-2-0-0-0---5------3-----2---2------7-----3-||-0--0-0-2--0-0-3-----------------------0-0---0-0-----0--0-0---0-0---| ... ... ... ... ... ... ... ...
|--------------------------------------------------------------------||--------------------------------------------------------------------||----------------------------------5---------------------------------||-2--2----3--3---------------7-----5--------2--2----3--3-------------||-2--2----3--3--------2------5-----3--------2--2----3--3-------------||-0--0----1--1--------0--0-0---0-0----------0--0----1--1-------------| ... ...
|--------------------------------------------------------------------||--------------------------------------------------------------------||-------------------------------------------------------------4------||-------------------------------------------------------------4------||-----2-----3-----4-----3-----2-2-----2-----3-----4-----3-----2------||-0-1---0-1---0-1---0-1---0-1-----0-1---0-1---0-1---0-1---0-1--------| ...........................................................
|--------------------------------------------------------------------||--------------------------------------------------------------------||--------------------------------------------------------------------||--------------------------------------------------------------------||-----2-----3-----4-----3-----2-2-----2-----3------5\4---5\4---5\4---||-0-1---0-1---0-1---0-1---0-1-----0-1---0-1---0-0--3\2-0-3\2-0-3\2---| ...............................................
|-------------------||-------------------||-------------------||-------------------||-5\4---5\4---5\4---||-3\2-0-3\2-0-3\2---|
|--------------------------------------------------------------------||--------------------------------------------------------------------||--------------------------------------------------------------------||--------------------------------------------------------------------| x6|-----------------5/7--8\7--5/7------------------5/7--5/7------------||-0-0-0-0-0-0-0-0-3/5--6\5--3/5--0-0-0-0-0-0-0-0-3/5--3/5------------| ............... ...............
|--------------------------------------------------------------------||--------------------------------------------------------------------||--------------------------------------------------------------------||------------------4-4--5\4-4-4-------------------4---4--------------| x2|------------------0-2--3\2-0-2-------------------0h2-0h2------------||-2-2-2-2-2-2-2-2----------------2-2-2-2-2-2-2-2---------------------| ............... ...............
|-------------------||-------------------||-4-4-4-4-4-4-4-4---||-4-4-4-4-4-4-4-4---||-2-2-2-2-2-2-2-2---||-------------------|
|--------------------------------------------------------------------||--------------------------------------------------------------------||-9-------7--9------------------------------------------8------------||-9-------7--9------9------------------10--9------------8--9---------| x3|-7-------5--7--7-9---10-9h10----------10--9------------6--9---------||-0-0-0-0----------------------8-8-8-8-8---7----8-8-8-8----7---------| ..... ....... .......
|--------------------------------------------------------------------||--------------------------------------------------------------------||-9-------7--9-------------------------------------------------------||-9-------7--9------9------------------10--9----------------2-2---3-3||-7-------5--7--7-9---10-9h10----------10--9--9-7-6--6------2-2---1-1||-0-0-0-0----------------------8-8-8-8-8---7-----------8-7--0-0---1-1| ..... .......
|--------------------------------------------------------------------||--------------------------------------------------------------------||------------------------------------------------------------------5-||-------------------5------4-----2---7------5-----4----------9-----5-||-2------4------5---3--0-0-2-0-0-0---5------3-----2---2------7-----3-||-0--0-0-2--0-0-3-----------------------0-0---0-0-----0--0-0---0-0---| ... ... ... ... ... ... ... ...
|--------------------------------------------------------------------||--------------------------------------------------------------------||----------------------------------5---------------------------------||-2--2----3--3---------------7-----5--------2--2----3--3-------------||-2--2----3--3--------2------5-----3--------2--2----3--3-------------||-0--0----1--1--------0--0-0---0-0----------0--0----1--1-------------| ... ...
Clean\Acoustic Strum Riff:|----------------0h2p0-----3------------------------------------------||-------------3--------3-----------3---3-----0-----0-------0-------0--||------0----2---2--------2-------0---0---0-------2-------2-------2----||----2----0--------------------------------2-----------------0-1------| x2|--2---------------------------3---------------0-----0-2-------------2||0--------------------------------------------------------------------|
Pre-Solo Riff:|----19-15----17-14-------------17-14----15-12------------------||-17-------17-------15-15-15-15-------15-------13-13-13-13------||---------------------------------------------------------------||---------------------------------------------------------------||---------------------------------------------------------------||---------------------------------------------------------------| \
| x2|-15-12----14-12h14p12-11-------------------11-12-14------------| /|-------13----------------13-12-13-15-13-15---------------------||---------------------------------------------------------------||---------------------------------------------------------------||---------------------------------------------------------------||---------------------------------------------------------------|
Solo 1:|----------------15----15-17----19-15-12-----------------------------||-17-17-17-17-19----19-------19----------13~~------------------------||--------------------------------------------------------------------||--------------------------------------------------------------------||--------------------------------------------------------------------||--------------------------------------------------------------------|
|---------15-14----15-14---------------------------------------------||-15b-15b-------12-------12----------15------------------------------||---------------------------12-14-12-14b-14-12-----------------------||----------------------------------------------14~~------------------||--------------------------------------------------------------------||--------------------------------------------------------------------|
|--------------------------------------------------------------------||--------------------------------------------------------------------||-12-------12-12h14p12-11----14-12-11--------------------------------||----14-12----------------12----------10~~---------------------------||--------------------------------------------------------------------||--------------------------------------------------------------------|
|----------------------------15-11/12-11-------12//19----------------||----------------------------------------12-11-11//17----------------||--------------------9-10-12-----------------------------------------||-7-9-10~~-7-9-10-12-------------------------------------------------||--------------------------------------------------------------------||--------------------------------------------------------------------|
|----19-15----17-14-------------17-14----15-12------------------||-17-------17-------15-15-15-15-------15-------13-13-13-13------||---------------------------------------------------------------||---------------------------------------------------------------||---------------------------------------------------------------||---------------------------------------------------------------| \
| x2|-15-12----14-12h14p12-11-------------------11-12-(14)~~--------| /|-------13----------------13-12-13-15-13-15---------------------||---------------------------------------------------------------||---------------------------------------------------------------||---------------------------------------------------------------||---------------------------------------------------------------|
Acoustic Strum riff distorted:|----------------0h2p0-----3------------------------------------------||-------------3--------3-----------3---3-----0-----0-------0-------0--||------0----2---2--------2-------0---0---0-------2-------2-------2----||----2----0--------------------------------2-----------------0-1------| x2|--2---------------------------3---------------0-----0-2-------------2||0--------------------------------------------------------------------|
|--------------------------------------------------------------------||--------------------------------------------------------------------||--------------------------------------------------------------------||--------------------------------------------------------------------||-2--2--2--2--2--2--2--2--2--2--2--2--2--2--2--2---------------------||-0--0--0--0--0--0--0--0--0--0--0--0--0--0--0--0---------------------|
|---------------------------------------------------------------------||---------------------------------------------------------------------||---------------------------------------------------------------------||---------------6-6---------------6---------------6-6---------------6-| x2|-4-4-5-4-4-4-5-4-4-4-4-5-4-4-4-5-4-4-4-5-4-4-4-5-4-4-4-4-5-4-4-4-5-4-||-2-2-3-2-2-2-3-----2-2-3-2-2-2-3---2-2-3-2-2-2-3-----2-2-3-2-2-2-3---|
(let ring)|--------------------------------------------------------------------||--------------------------------------------------------------------||--------------------------------------------------------------------||--------------------------------------------------------------------||-5--------4--------2------------------------------------------------||-3--------2--------0------------------------------------------------|
Solo 2 (double fast):|-17p12----------12-17p12----------12-17p12----------12-15p12----------12-||-------13-12-13----------13-12-13----------13-12-13----------13-12-13----||-------------------------------------------------------------------------||-------------------------------------------------------------------------||-------------------------------------------------------------------------||-------------------------------------------------------------------------|
|-17p12----------12-17p12----------12-17p12----------12-15p12----------12-||-------13-12-13----------13-12-13----------13-12-13----------13-12-13----||-------------------------------------------------------------------------||-------------------------------------------------------------------------||-------------------------------------------------------------------------||-------------------------------------------------------------------------|
|-19-19-19-17-17-17-15-15-15-14-14-14-17-17-17-15-15-15-14-14-14----------||----------------------------------------------------------------15-15-15-||-------------------------------------------------------------------------||-------------------------------------------------------------------------||-------------------------------------------------------------------------||-------------------------------------------------------------------------|
|---------------17p15-----------------23b-23b-23b--24b-24b-24b------------||-17bb-17p15p14-------15p14-----------------------------------------------||---------------------------16-14~----------------------------------------||-------------------------------------------------------------------------||-------------------------------------------------------------------------||-------------------------------------------------------------------------|
|---------------------------10-8-7----8-7------7~~------------------------||----------------------------------10-----10-8----------------------------||-2-4-2b-4-3-2-2h4p2------------------------------------------------------||--------------------2-2h4~-----------------------------------------------||-------------------------------------------------------------------------||-------------------------------------------------------------------------|
|-10p8p7-10p8p7-12p10p9-12p10p9-14p12p11-14p12p11-------------------------||-------------------------------------------------------------------------||-------------------------------------------------------------------------||-------------------------------------------------------------------------||-------------------------------------------------------------------------||-------------------------------------------------------------------------|
|-17p15-14-19p17-14-17p15-14-19p17-14-17p15-14-19p17-14-17p15-14-19p17-14-||-------------------------------------------------------------------------||-------------------------------------------------------------------------||-------------------------------------------------------------------------||-------------------------------------------------------------------------||-------------------------------------------------------------------------|
|-----14-----14-----14-----14-19p14----14-19p14----14-19p14----14---------||-17b----17b----17b----17b----------17----------17----------17------------||-------------------------------------------------------------------------||-------------------------------------------------------------------------||-------------------------------------------------------------------------||-------------------------------------------------------------------------|
|-----14-----14-----14-----14-----15-----15-----15-----15-----------------||-17b----17b----17b----17b----18b----18b----18b----18b--------------------||-------------------------------------------------------------------------||-------------------------------------------------------------------------||-------------------------------------------------------------------------||-------------------------------------------------------------------------|
|-----16-----16-----17----17-----18-----18--22/\/\/\/\/\/\----------------||-19b----19b----20b----20----21b----21b-----------------------------------||-------------------------------------------------------------------------||-------------------------------------------------------------------------||-------------------------------------------------------------------------||-------------------------------------------------------------------------| *end of solo 2, tremolo vib*
|-------------------------------------------------------------------------||-------------------------------------------------------------------------||-------------------------------------------------------------------------||-----------------------------4-4-----------------------------4-----------| x2|-----4-----5-----4-----5-----2-2-----4-----5-----4-----5-----2-----------||-0-0-2-0-0-3-0-0-2-0-0-3-0-0-----0-0-2-0-0-3-0-0-2-0-0-3-0-0-------------| ... ... ... ... ... ... ... ... ... ...
|-------------------------------------------------------------------------||-------------------------------------------------------------------------||-------------------------------------------------------------------------||-------------------------------2-4-5-5-----------------------------------| x3|-------------------------2-3-5-------3--333-2-3-5-3-2--------------------||-0-0-0-0-0-0-0-000-2-3-5------------------------------3-2----------------| .................
|------------------------------------------------------------------------------||------------------------------------------------------------------------------||------------------------------------------------------------------------------||-------------------------------2-4-5-5----------------------------------------||-------------------------2-3-5-------3--333-2-3-5-3-2-----2--333-2-3-5-3-2----||-0-0-0-0-0-0-0-000-2-3-5------------------------------3-2-0----------------3-2| .................
|--------------------------------------------------------------------||--------------------------------------------------------------------||-------------------------------------------------------------4------||-------------------------------------------------------------4------||-----2-----3-----4-----3-----2-2-----2-----3-----4-----3-----2------||-0-1---0-1---0-1---0-1---0-1-----0-1---0-1---0-1---0-1---0-1----
Tap to rate this tab
 
# A B C D E F G H I J K L M N O P Q R S T U V W X Y Z