Metallica - Live Shit Binge And Purge San Diego Part 2 tab

Band- Metallica
Album- Live Shit Binge And Purge San Diego Disc 2

1.THE FOUR HORSEMEN

intro 

2a) D-----------------------------------------5h7p5---- A--7-5-7-5-7-5-7-5---5-7-5-7-5-7-5----5h7-------7p5 E--0-0-0-0-0-0-0-0-6---0-0-0-0-0-0--7-------------- pm...........................................
2b) continued D--------------------------------------5---7-5 A--7-5-7-5-7-5-7-5---5-7-5-7-5-7-5---5-3-5-5-3 E--0-0-0-0-0-0-0-0-6---0-0-0-0-0-0-6-----3---- pm........................................... galloping
3) 1st 2nd 3rd D--------9-------9-------9-|-7-7-|-5-7-|-12-9-5---7-5 repeat. A--------7-------7-------7-|-5-5-|-3-5-|-10-7-3-5-5-3 E--0-0-0---0-0-0---0-0-0---|-----|-----|--------3---- pm...... ..... ..... main
4) D--9--9-7--7-5--5-4-*-9--9-7--7-5--4-5-4-- A--7--7-5--5-3--3-2-*-7--7-5--5-3--2-3-2-5 E-------------------*--------------------3 pm ....... The horsemen are drawing nearer. *=slide pick
5) D----------------------------------9-9-----------10-10 A----------------------------------7-7-----------8--8- E--0-0-0-0-0--0-0-0-0-0--0-0-0-0-0-----0-0-0-0-0------ pm................................ .........
6) D------------------------------------------- A--7-5----5-------------------7-5----5------ E------7----7-6-5-3-5--0-3-5------7----7-6-5
7) D--5-6-7----------3-2-0-2-------5-6-7 A--3-4-5------0-3---------------3-4-5 E---------0-0-------------0-0-0------ pm ... ..... Time...
8) D--------------------------5-6-7 A--------------------------3-4-5 E--0-0-0-0-0-0-0-0-0-0-0-0------
9) G--------------------------4---------2---- D------9---------7---------------------2-- A--7-7---7---5-5---5---3-3---3---2-2-----2 E----------7---------5---------3---------- Not often played live (although I have heard it)
--------------------------------------------------------------------
solo 1 |-----------------------------------------|--15b--12--15--14b~~~----| |--15b--15b--15b~~~--(15)p12--15--15b~~~--|-------------------------| |-----------------------------------------|---------------------\9--| |-----------------------------------------|-------------------------| |-----------------------------------------|-------------------------| |-----------------------------------------|-------------------------|
7---------9--7------------10--9--7----------| ---10--7--------10--8--7------------7h10p7--| --------------------------------------------| --------------------------------------------| --------------------------------------------| --------------------------------------------|
---------------------------------|-------------------------------------| 7--10p7--------------------------|-----12--12--12----12----12--12--12--| ---------9--7--6h7--6------------|--9--11--11--11/11-11/11-11--11--11--| -----------------------7---------|-------------------------------------| --------------------------7--(7)\|-------------------------------------| ---------------------------------|-------------------------------------|
---------------------------------------------------------------------| ---------------------------------------------------------------------| 14b~~~--(14)--14p11--------------------------------------------------| --------------------14--12------12--14b--(14)p12------12~~~--12--12--| ----------------------------14-------------------14------------------| ---------------------------------------------------------------------|
------------------------------------------------------------------------| -------------------------------------------------12--13p12------12--13--| 11h12--11------11--12--11h12p11------11--12--14-------------14----------| -----------14--------------------14-------------------------------------| ------------------------------------------------------------------------| ------------------------------------------------------------------------|
---------------------------------20--------| 13/15--15/17--17/19--19/20--20~~~-----(20)\| -------------------------------------------| -------------------------------------------| -------------------------------------------| -------------------------------------------|
Gtr.2 17b--17b--15--17p15--14--15p14\12--14p12---------------------| ----------------------------------------15--15--14--12--14\--| -------------------------------------------------------------| -------------------------------------------------------------| -------------------------------------------------------------| -------------------------------------------------------------|
-------------------------------------------------------------------| 12--10--12--10--8--10--8-----8-------------------------------------| --------------------------9-----9--7--9--7-------------------------| --------------------------------------------9--7-------------------| --------------------------------------------------10--7------------| ---------------------------------------------------------10--7--7--| P.M.----|
Gtr.3 17b--17b--15--17p15--14--15p14--12--14p12--10--12p10--8--| ---------------------------------------------------------| ---------------------------------------------------------| ---------------------------------------------------------| ---------------------------------------------------------| ---------------------------------------------------------|
10p8--7--8p7--5--7--5-----5--------------------------------------| -----------------------8-----8--7--8p7--5--7--5--7---------------| ----------------------------------------------------7--6---------| ----------------------------------------------------------7--(7)/| -----------------------------------------------------------------| -----------------------------------------------------------------|
Gtrs.2&3 ---------------------------------------------------------------12------12--| ---------------------------8-----8--10--8--10--12--10--12--15------15------| ---------7-----7--9--7--9-----9--------------------------------------------| 9--7--9-----9--------------------------------------------------------------| ---------------------------------------------------------------------------| ---------------------------------------------------------------------------| P.M.------------------------------|
15p12--12--12--15p12--12--12--12--15p12--12--12--12--12--12--12--12--15p12------ -------------------------------------------------------------------------------- -------------------------------------------------------------------------------- -------------------------------------------------------------------------------- -------------------------------------------------------------------------------- --------------------------------------------------------------------------------
12--12--12--12--12--15b--15b--| ------------------------------| ------------------------------| ------------------------------| ------------------------------| ------------------------------|
15b--15--12--15p12--15p12--15--12--12h15p12------12--15p12--12h15p12------12---- --------------------------------------------15-----------------------15--------- -------------------------------------------------------------------------------- -------------------------------------------------------------------------------- -------------------------------------------------------------------------------- --------------------------------------------------------------------------------
15p12--12h15p12------12--15p12--12--| -----------------15-----------------| ------------------------------------| ------------------------------------| ------------------------------------| ------------------------------------|
Gtr.2 15p12------12--15p12--12h15p12------12--15p12--15p12------12--15b--15b--15b--15\ -------15-----------------------15--------------------15------------------------ -------------------------------------------------------------------------------- -------------------------------------------------------------------------------- -------------------------------------------------------------------------------- --------------------------------------------------------------------------------
Gtr.3 17p12--12h15p12------12--15p12--17p12--1h15p12------12--15p12--15--12----------- -----------------15-----------------------------15---------------------15------- -------------------------------------------------------------------------------- -------------------------------------------------------------------------------- -------------------------------------------------------------------------------- --------------------------------------------------------------------------------
-------------------|------------------------------------------------------| 12-----------------|------------------------------------------------------| ----14--12---------|--12h14--12p11h12p11------11--------------------------| ------------14--12\|----------------------14------14--12p11h12p11\9--11p9\| -------------------|------------------------------------------------------| -------------------|------------------------------------------------------|
---------------------------------------| ---------------------------------------| ---------------------------------------| 7~~~-----------------------------------| ---------------------------------------| ---------------------------------------|
-------------------------------------------------------|-----------------------| ----------------------------------10--8--7h8p7---------|-----------------------| ---7--9--7--9b--(9)p7-----7--9--7----------------7-----|-----------------------| 9---------------------9----------------------------9---|--7~~~-----------------| -------------------------------------------------------|-----------------------| -------------------------------------------------------|-----------------------|
solo 2 the faster one *There is a lot of riff repetition in this solo, for space sake I'll write the riff once and then repeat*
1) e-----------------------------------14 B--------------------------14----14--- G-----------------14----13----12------ D--------14----13----12--------------- A-----13----12------------------------ E--12---------------------------------
2) ^ ^ ^ ^ ^ e-----12-15-12----12-17-12--- ----------------- B--15----------15----------15 8x -15--15--15-15-15 G---------------------------- ----------------- D---------------------------- ----------------- A---------------------------- ----------------- E---------------------------- -----------------
3) e------------- ------------------------------------------------ B--15p14p12--- 8x -15p14p12----12--------------------------------- G-----------14 ----------14----14-12-14-12----12--------------- D------------- ----------------------------14----14-12-14-12--- A------------- ----------------------------------------------14 E------------- ------------------------------------------------ (or something close)
4) AH e------------------------------- B-----------------------12-12-12 G-----------------------12------ D-----------------12-14--------- A-----------12-14--------------- E--12-14-15---------------------
5) ************************** ^ ^ e--19-19-19-19-19-19-19h22p19 -22--22 B---------------------------- 6x ------- G---------------------------- ------- D---------------------------- ------- A---------------------------- ------- E---------------------------- ------- The 19's are picked as fast as possible, probably more than I have written, but I couldn't count them.
6) ^ ^ ^ e--19-21-22-21-19----19------------------ --------- B-----------------22----22-21-22-21-19--- 3x --------- G--------------------------------------21 -21-21-21 D---------------------------------------- --------- A---------------------------------------- --------- E---------------------------------------- ---------
7a) 7b) 7c) 7d) ^ ^ e-----12-15-12 -19p15--- -17p14--- -21p17--- -22--22 B--15--------- -------17 -------15 -------17 ------- G------------- --------- --------- --------- ------- D------------- --------- --------- --------- ------- A------------- --------- --------- --------- ------- E------------- --------- --------- --------- -------
2.FOR WHOM THE BELL TOLLS
Guitar 1 (Hetfield)|-----------------------||-----------------------||-----------------------||---5-5----5-5----2-----||---5-5----5-5----2-----| x8|---3-3----3-3----0-----|
Guitar 2 (Hammet)|---------------------------------||---------------------------------||---------------------------------||--12-11-10-9-------12------------||--------------10-9---------------| x8|-----------------------10-9------|
Both|-------------------------||-------------------------||-------------------------||---5-5----5-5----2~------||---5-5----5-5----2~------| x4|---3-3----3-3----0~------|
|--------------------------------------||--------------------------------------||--------------------------------------||-------------------------------3------||---5-4-3-2-5-4-3-2-5-4-3-2-3-4-1------| x4|---3-2-1-0-3-2-1-0-3-2-1-0-1-2--------|
Guitar 1 (Hetfield)|-----------------------------------------------------------------||-----------------------------------------------------------------||----------------------5---------------------------5~-------------||---2~-------5~--------5---2~-----------5~---------5~--------7~---||---2~-------5~--------3---2~-----------5~---------3~--------7~---| x2|---0~-------3~------------0~-----------3~-------------------5~---|
Guitar 2 (Hammet)|------------------------||------------------------||---12-9-11-----9-11-----||------------12----------||------------------------| x30|------------------------|
Both|--------------------------------------------------------------||--------------------------------------------------------------||-----------------------------------------------------3--------||-2---5~--2---7~--2---5/8/4~--2---5~--2---7~--2---5---3--4--3--||-2---5~--2---7~--2---5/8/4~--2---5~--2---7~--2---5---1--4--3--| x2|-000-3~--000-5~--000-3/6/2~--000-3~--000-5~--0-003-00---2--1--|
|-----------------------------------------------------------------||-----------------------------------------------------------------||----------------------5---------------------------5~-------------||---2~-------5~--------5---2~-----------5~---------5~--------7~---||---2~-------5~--------3---2~-----------5~---------3~--------7~---| x2|---0~-------3~------------0~-----------3~-------------------5~---|
|--------------------------------------------------------------||--------------------------------------------------------------||-----------------------------------------------------3--------||-2---5~--2---7~--2---5/8/4~--2---5~--2---7~--2---5---3--4--3--||-2---5~--2---7~--2---5/8/4~--2---5~--2---7~--2---5---1--4--3--| x2|-000-3~--000-5~--000-3/6/2~--000-3~--000-5~--0-003-00---2--1--|
Guitar 1 (Hetfield)|--------------------------------------||--------------------------------------||--12-9-11----9------------------------||----------12---11-12--9-11----9-10----||---------------------------12---------| x3|--------------------------------------|
|------------------------------------------||------------------------------------------||--12-9-11----9-----------------------12~--||----------12---11-12--9-11----9-10--------||---------------------------12-------------| x2|------------------------------------------|
|-----------------------------------------------||----------------------------------------12~----||--12-9-11----9---------------------------------||----------12---11-12--9-11----9-10-------------||---------------------------12------------------||-----------------------------------------------|
Guitar 2 (Hammet)
|------------------------------------------------||------------------------------------------------||------------------------------------------------||--2~-------------------------------------2~-----||--2~-------------------------------------2~-----||--0~-------------------------------------0~-----|
|-------------------------------------------------------------------------||-------------------------------------------------------------------------||-------------------------------------------------------------------------||--2~------------------------------------5------5-5-5-5------5-5-5--------||--2~------------------------------------5------5-5-5-5------5-5-5--------||--0~------------------------------------3------3-3-3-3------3-3-3--------|
|------------------------------------------------||------------------------------------------------||----------------------------------------4~------||--2~------------------------------------4~------||--2~------------------------------------2~------||--0~--------------------------------------------|
|----------------------------------------------||----------------------------------------------||----------------------------------------------||--2~-------------------------------------2~---||--2~-------------------------------------2~---||--0~-------------------------------------0~---|
|--------------------------------------------------------------------||--------------------------------------------------------------------||--------------------------------------------------------------------||--2~------------------------------------5------5-5-5-5------5-5-5---||--2~------------------------------------5------5-5-5-5------5-5-5---||--0~------------------------------------3------3-3-3-3------3-3-3---|
|------------------------------------------------||------------------------------------------------||-----------------------------------------4~-----||--2~-------------------------------------4~-----||--2~-------------------------------------2~-----||--0~--------------------------------------------|
Both|-----------------------------------------------------------------||-----------------------------------------------------------------||----------------------5---------------------------5~-------------||---2~-------5~--------5---2~-----------5~---------5~--------7~---||---2~-------5~--------3---2~-----------5~---------3~--------7~---| x2|---0~-------3~------------0~-----------3~-------------------5~---|
|--------------------------------------------------------------||--------------------------------------------------------------||-----------------------------------------------------3--------||-2---5~--2---7~--2---5/8/4~--2---5~--2---7~--2---5---3--4--3--||-2---5~--2---7~--2---5/8/4~--2---5~--2---7~--2---5---1--4--3--| x2|-000-3~--000-5~--000-3/6/2~--000-3~--000-5~--0-003-00---2--1--|
|----------------------------------------------||----------------------------------------------||----------------------------------------------||---2~--------4-4----2~------4-4---5-5---------||---2~--------4-4----2~------4-4---5-5---------| x8 fading...|---0~--------2-2----0~------2-2---3-3---------|
3.FADE TO BLACK
Acoustic gtr.|------------------------|------------------------||------------------------|------------------------||-------0----------------|-------0----------------||----4-----4-----4-----4-|----4-----4-----4-----4-||-2-----------2-----5----|-0-----------0-----5----||------------------------|------------------------|
|------------------------|------------------------||------------------------|------------------------||-------0----------------|-------2----------------||----4-----4-----4-----4-|----2-----2-----2-----2-||-2-----------2-----5----|-4-----------4-----0----||------------------------|------------------------|
w/Flanger or chorus|----------------------------------------------------------||-----------------------------------------------7----------||--------------------------------------------7-(7)---------||--------------------------------------/-9-----------9-----||----------------------------------------------------------||----------------------------------------------------------|
|--------------------------|-----------------------||-----7--8-/-10------8--10-|-12---10---8---10------||--------------------------|-----------------------||--------------------------|-----------------------||--------------------------|-----------------------||--------------------------|-----------------------|
p p sl h p h|------------------------------|---------------------||-(10)---12^10^8-\-7^8^7-----7-|-7^8--7-----7--------||-------------------------9----|---------9-----9---7-||------------------------------|---------------------||------------------------------|---------------------||------------------------------|---------------------|
sl sl p|----------------------------|-----------------|-----||----------------------------|---------------8-|-7---||----------------------7-\-6-|----------7^6----|-----||-7---9----------(9)-\-------|-----------------|-----||----------------------------|-----------------|-----||----------------------------|-----------------|-----|
sl ~~~~~~~~~~~~~~|---------------------||-8-/-10--------------||---------------------||---------------------| |---------------------| |---------------------|
full p )\ ~~~~~~~~~~~~~|---14-19-14-----15^14---------------------/--\------------||-15--------15--------15---17-15-14-------/----\-----------||-------------16--------14---------16-14-/----(14)---------||----------------------------------------------------------||----------------------------------------------------------||----------------------------------------------------------|
h ~~~~~~~~~~ h h p|---------------------------------------------------------||---------------------------------14-15-14^15^14----14^15-||-14^16---------------------14-16----------------16-------||--------14----------14^16--------------------------------||---------------------------------------------------------||---------------------------------------------------------|
~~~~~~~~~~~~~~~~~|----19--17--15----------15--17-|-14----------------------||-14----------------------------|----15-------------------||-------------------------------|-------16----------------||-------------------------------|-------------------------||-------------------------------|-------------------------||-------------------------------|-------------------------|
|-14--15--14--------------14--15--14------17----15--14-----||---------------15--------------------15-------------------||------------------14--------------------------------------||----------------------------------------------------------||----------------------------------------------------------||----------------------------------------------------------|
h h|------------------------|---------12-13-15-12^13^15---17--||------------------------|-12-13-15------------------15----||------------------12-14-|---------------------------------||----------12-14-15------|---------------------------------||-12-14-15---------------|---------------------------------||------------------------|---------------------------------|
Acoustic gtr.|------------------------|---------------------------||------------------------|-------------------0----3--||------------------------|-------1--------1----------||-------0-----------2----|----2--------2-------------||----3-----------2-----2-|-2--------2----------------||-1--------1--4----------|---------------------------|
h h|----------0----------|------------0----------||-0^1---------------1-|-(1)---1-------------0-||-2---2---------0^2---|--0--------------0^2---||-2-----2-----2-------|--2------2-----2-------||-0-------------------|--3--------------------||---------------------|-----------------------|
sl|------------3-----3--3-|---------------------||-(0)---3---------------|---------0--(1)-/-3--||--0---------------2--0-|-0-------0--(2)-/-4--||---------0-----0-------|-----2---------------||-----------------------|-------2-------------||--3--------------------|-0-------------------|
h h h|----------0-----------|------------0----------||-0^1----------------1-|-(1)---1-------------0-||-2---2----------0^2---|--0--------------0^2---||-2-----2-----2--------|--2------2-----2-------||-0--------------------|--3--------------------||----------------------|-----------------------|
h p sl|-------------3-------------|-0------------------------||-(0)---3-------------------|-0----------0---(1)-/-3---||--0----------------0^2^0-0-|-0----------0---(2)-/-4---||----------0-----0----------|-2----2-------------------||---------------------------|---------2----------------||--3------------------------|----0---------------------|
P.M.--------------------| P.M.-------||------------------------|--------------------------||-5--5--5--5--5--5--5--5-|-0-------2--2-------------||-5--5--5--5--5--5--5--5-|-2-------2--2-------------||-2--2--2--2--2--2--2--2-|-2-------2--2-------------||------------------------|-0-------0--0-----------5-||-0--0--0--0--0--0--0--0-|---------------0--0--3----|
P.M.-------||--------------------------||-5-------5--5-------------||-5-------5--5-------------||-5-------5--5-------------||-3-------3--3-----------5-||---------------0--0--3----| P.M.--------||---------------------------------------------||-2-------2--2-----7---9-----9--9-------------||-2-------2--2-----7---9-----9--9-------------||-2-------2--2-----7---9-----9--9--------5--5-||-0-------0--0-----5---7-----7--7--------3--2-||----------------------------------0--0-------|
P.M.------| P.M.-------||--------------------------|--------------------------||-0-------2--2-------------|-5-------5--5-------------||-2-------2--2-------------|-5-------5--5-------------||-2-------2--2-------------|-5-------5--5-------------||-0-------0--0-----------5-|-3-------3--3-----------5-||---------------0--0--3----|---------------0--0--3----|
P.M.--||---------------------|------------||-2-------2--2--------|------------||-2-------2--2--------|-1----------||-2-------2--2--------|-2----------||-0-------0--0--5--5--|-2----------||---------------3--2--|-0----------|
~~~~~~~~~~~ ~~~~~ sl|---------------------|--------------------------||-10-----------10--12-|-13------13-/-15--13--12--||--9------------9--11-|-12------12-/-14--12--11--||---------------------|--------------------------||---------------------|--------------------------||---------------------|--------------------------|
~~~~~~~~~~~~~~~~ sl ~~~~~~~~~~~ sl sl|--------------------------|------------------------------||--------------------------|------------------------------||-12---------------12-/-14-|-9-----------9-/-11---11-/-12-||-12---------------12-/-14-|-9-----------9-/-11---11-/-12-||--------------------------|------------------------------||--------------------------|------------------------------|
full /\ sl ~~~~~~~~~~~~~~ ~~~~~~ ) )\|-----------------------------|-------------/-/--\---------||--------------------------12-|-13------15-/-/------13-----||-12-/-14--------------14--11-|-12------14--/-------12-----||-12-/-14--------------14-----|----------------------------||-----------------------------|----------------------------||-----------------------------|----------------------------|
full full full full /\ /\ /\ /\ ) ) ) ) ) ) ) )\ ~~~~~~~~~~~~~~~~~~~~~~~|----/-/-----/-/-----/-/-----/-/|-\------------------------||-15/-/---15/-/---15/-/---15/-/-|(15)----------------------||-14-/----14-/----14-/----14-/--|(14)----------------------||-------------------------------|--------------------------||-------------------------------|--------------------------||-------------------------------|--------------------------|
sl sl sl|---------------------|--------------------------||---------------------|--------------------------||-7-/-9-------9---9---|-7-/-9-------9-/-12--11---||-7-/-9-------9---9---|-7-/-9-------9-/-12--11---||-5-/-7-------7---7---|-5-/-7-------7-/-10---9---||---------------------|--------------------------|
P.M.------------------------||-----------------------|-------------------------------||-----------------------|-------------------------------||---7-------7---7-------|-----------------------------4-||---7-------7---7-------|-9-9-9--7-7-7--5-5-5--4-4-4----||---5-------5---5-------|-------------------------------||-----------------------|-------------------------------|
sl sl sl |---------------------|--------------------------||---------------------|--------------------------||-7-/-9-------9---9---|-7-/-9-------9-/-12--11---||-7-/-9-------9---9---|-7-/-9-------9-/-12--11---||-5-/-7-------7---7---|-5-/-7-------7-/-10---9---||---------------------|--------------------------|
P.M.------------------------||-----------------------|-------------------------------||-----------------------|-------------------------------||---7-------7---7-------|-------------------------------||---7-------7---7-------|-9-9-9--7-7-7--5-5-5--4-4-4--5-||---5-------5---5-------|-------------------------------||-----------------------|-------------------------------|
sl ~~~~~~~~ sl ~~~~~~~|--------------------------|------------------------------||-7-/-8-------8---8--------|-7-/-8-------8---12---10------||--------------------------|------------------------------||-7-/-9-------9---9--------|-7-/-9-------9---12---11------||--------------------------|------------------------------||--------------------------|------------------------------|
~~~~~~~ P.M.-----------------------------||---------------------|------------------------------------||-7-------7-----------|-12-12-12--10-10-10--8-8-8--7-7-7---||-------------7-------|------------------------------------||-7-------7---7-------|-12-12-12--11-11-11--9-9-9--7-7-7-9-||---------------------|------------------------------------||---------------------|------------------------------------|
sl ~~~~~~~ ~~~~~~~~|-------------------------|-------------------------------||-7-/-8-------8---8-------|-7---8-------8---12---10-------||-------------------------|-------------------------------||-7-/-9-------9---9-------|-7-/-9-------9---12---11-------||-------------------------|-------------------------------||-------------------------|-------------------------------|
~~~~~~~~~~~ P.M.-----------------------||--------------------------|-------------------------------||--------------------------|-7-7-7--5-5-5--3-3-3--2-2-2--3-||--11------11--11----------|-7-7-7--6-6-6--4-4-4--2-2-2--4-||---7-------7---7----------|-------------------------------||---9-------9---9----------|-------------------------------||--------------------------|-------------------------------|
P.M.--------| P.M.--------||----------------------|------------------------||----------------------|------------------------||--------------9-----9-|--------------12-11-----||--------------9-----9-|--------------12-11-----||--------------7-----7-|--------------10--9-----||-0--0--0--0-----------|-0--0--0--0-------------|
P.M.--------| P.M.------------------------||--------------------|---------------------------------||--------------7-----|---------------------------------||--------------7-----|------------------------------4--||--------------7-----|-9-9-9--7-7-7--5-5-5--4-4-4--(5)-||--------------5-----|---------------------------------||-0--0--0--0---------|---------------------------------|
sl P.M.-||-----------------------|--------------------------------||-----------------------|--------------------------------||-----------------------|--------------------------------||-------/-4-------2/5---|-(2/5)--4-------2---------------||-*2/5------------------|--------5-------4--2/5--4-------||-----------------------|------------------------5---2/5-|*Gtr. II indicated to left slash in TAB
sl P.M.-||---------------------|------------------------------||---------------------|------------------------------||---------------------|------------------------------||-------/-4-------2/5-|-(2/5)-4-------2--------------||-4-------------------|-------5-------4--2/5--4------||-5-------------------|-----------------------5--2/5-|
sl P.M.-||------------------------|------------------------------||------------------------|------------------------------||------------------------|------------------------------||--------/-4-------2/5---|-(2/5)-4-------2--------------||-2----------------------|-------5-------4--2/5--4------||-3----------------------|-----------------------5--2/5-|
sl P.M.--||-------------------------|----------------------------||-------------------------|----------------------------||-------------------------|----------------------------||---------/-4-------2/5---|-(2/5)-7--------5--4--2--4--||-4-----------------------|-------5--------4--2--------||-5-----------------------|----------------------5--2--|
Guitar Solo: Full Full Full sl ) ) )|------------------|------/-------/------/----||------------------|-----/-------/------/-----||----------------7-|---9/------9/-----9/------||-------/-9---9----|--------------------------||------------------|--------------------------||------------------|--------------------------|
Full )\ p |---------/--\-------------------||--------/----\---------------7--||-(9)--9/----(9)^7--9---9---9----||--------------------------------||--------------------------------||--------------------------------|
h h p h|----------------------------------||-7^8---7^8^7------7^8-------7-----||---------------7----------------7-||----------------------------------||----------------------------------||----------------------------------|
h sl h|-----------------------------------|----------------------||-7^8---7-----10---10---8---10-/-12-|-10---8--8^10---8---7-||----------7------------------------|----------------------||-----------------------------------|----------------------||-----------------------------------|----------------------||-----------------------------------|----------------------|
|-----------------------|----------------------------------||---8---10-----8--------|----------------------------------||-----------9-----9---7-|----------------------------7---9-||-----------------------|-----7-------9---9-------9--------||-----------------------|----------------------------------||-----------------------|----------------------------------|
Full )\ p |----/--\--------------------------||---/----\-------------------------||-9/----(9)^7--9---7---7-----7---9-||-------------------------9--------||----------------------------------||----------------------------------|
Full Full Full Full ) p ) p ) p )|----/--7---------/-7---------/-7---------/---||---/-----10^7---/----10^7---/----10^7---/--7-||-9/-----------9/----------9/----------9/-----||---------------------------------------------||---------------------------------------------||---------------------------------------------|
Full Full Full Full p ) p ) p ) p )|---------/----------/-7---------/-7---------/-7-||-10^7---/-7-10^7---/----10^7---/----10^7---/----||------9/---------9/----------9/----------9/-----||------------------------------------------------||------------------------------------------------||------------------------------------------------|
p p p p p|-10^7----7-10^7-10^7----7-10^7-10^7----7-||------10-------------10-------------10---||-----------------------------------------||-----------------------------------------||-----------------------------------------||-----------------------------------------|
p p p p p|-10^7----7-10^7-10^7----7-10^7-10^7----7-||------10-------------10-------------10---||-----------------------------------------||-----------------------------------------||-----------------------------------------||-----------------------------------------|
Full Full ) ) / /|-10/-----10/---10-8-7-8-7----|-7-------------------------||--------------------------10-|---10-8-10-8-7-8-7---7-----||-----------------------------|-------------------9---9-7-||-----------------------------|---------------------------||-----------------------------|---------------------------||-----------------------------|---------------------------|
p|----------------------|------7------------||--------------8^7---7-|-8-10---10-8-7-----||------------------9---|---------------9-7-||-7-----9---9----------|-------------------||----------------------|-------------------||----------------------|-------------------|
p ~~~~~~|-------------------|------7--8--7------7--8-||-----------8^7---7-|-8-10-------------------||---------------9---|------------------------||-7---9--9----------|------------------------||-------------------|------------------------||-------------------|------------------------|
|-10-8-7-8-7----7-------------|-------------------------||------------10---10-8-10-8-7-|-8-7---7-----------------||-----------------------------|-----9---9-7-9-7-6-7-6---||-----------------------------|-----------------------9-||-----------------------------|-------------------------||-----------------------------|-------------------------|
|------------------7--------|--------------7--------------||-----------7-8-10---10-8-7-|-8-7---7-8-10---10-8-7-8^7---||-----6-7-9-----------------|-----9---------------------9-||-7-9-----------------------|-----------------------------||---------------------------|-----------------------------||---------------------------|-----------------------------|
Full _____Grad. Release \ \3/4 Full Full Full Full \ \1/2 ) ) ) ) ) \ 1/4|----/-----/-----/-----/---|---/---------------------------||---/-----/-----/-----/----|--/----------------------------||-9/----9/----9/----9/-----|-9-9-9-9-9-9-9-9-9-9-9-9-9-9-9-||--------------------------|-------------------------------||--------------------------|-------------------------------||--------------------------|-------------------------------|
p|--------------10-10-10-------10-10-10-----10-10-10-||---------------7--7--7-------10-10-10-----10-10-10-||-9^7---7-------7--7--7--------7--7--7------7--7--7-||-----9----x-x----------x-x-x----------x-x----------||----------x-x----------x-x-x----------x-x----------||---------------------------------------------------|
Full Full Full ) ) )~~~~~~ p|----/-------/-------/-------------------||-10/-----10/-----10/---------10^7---7-8-||----------------------------------9-----||----------------------------------------||----------------------------------------||----------------------------------------|
h p ~~~~~~|------------------------|-------------------------||-7^8^7------------------|-------------------------||-------9-7---7--------7-|-9-7---7-----------------||-----------9--------9---|-----9---9-7-9-7---7-----||------------------------|-----------------9---9-7-||------------------------|-------------------------|
sl.|-------------------------12-||----------------------------||----------------------------||----------------------------||-9-7-5-7-5---5-5-5-5-7-/----||-----------7----------------|
p p p p p|-15^12--12-15^12-14^12--12-15^12-14^12--12-||------12--------------12--------------12---||-------------------------------------------||-------------------------------------------||-------------------------------------------||-------------------------------------------|
p p p p p|-15^12--12-15^12-14^12--12-15^12-14^12--12-||------12--------------12--------------12---||-------------------------------------------||-------------------------------------------||-------------------------------------------||-------------------------------------------|
p p p |-17-14--14-17^14--14-17^14--14-17^14--14-|\|------15--------15--------15--------15---| \|-----------------------------------------| \|-----------------------------------------| /-repeat|-----------------------------------------| /|-----------------------------------------|/
p p p p p |-19^15--15-19^15-17^15--15-19^15-17^15--15-| \|------17--------------17--------------17---| |-------------------------------------------| |-------------------------------------------| |-------------------------------------------| |-------------------------------------------|
p p p p p |-19^15--15-19^15-17^15--15-19^15-17^15--15-| |------17--------------17--------------17---| |-------------------------------------------| |-------------------------------------------| |-------------------------------------------| |-------------------------------------------|
p p p p |-21^17--17-21^17--17-21^17--17-21^17--17-| |------19--------19--------19--------19---| |-----------------------------------------| |-----------------------------------------| repeat |-----------------------------------------| |-----------------------------------------|
Full Full Full Full Full Full Full Full ) ) ) ) ) ) ) )~~~~~|-22/---22/---22/---22/---|-22/---22/---22/---22/------||-------------------------|----------------------------||-------------------------|----------------------------||-------------------------|----------------------------||-------------------------|----------------------------||-------------------------|----------------------------|
Full )\|-22/(22)-19-22-20-19-20-19-17-19-17-15-17-15-14-||------------------------------------------------||------------------------------------------------||------------------------------------------------||------------------------------------------------||------------------------------------------------|
|-15-14-12-14-12-10-12-10-9-10-9-7-||----------------------------------||----------------------------------||----------------------------------||----------------------------------||----------------------------------|
BEGIN FADE
|-9-7--7---7----------------|------------------------||----10--10--8-10-8-7-8-7---|-7----------------------||-------------------------9-|---9-7-9-7---7--7--7--7-||---------------------------|-----------9------------||---------------------------|------------------------||---------------------------|------------------------|
trem. pick Full Full Full ) )- - - - - - - - - - - - -( )|----/-----/----------------|----------\------/-----------||---/-----/-----------------|-----------\----/------7---7-||-9/-----9------------------|-(9)------(9)-9/-------------||-------//------------------|-//--------------------------||---------------------------|-----------------------------||---------------------------|-----------------------------|
Full Full ) )\ p|----/---7----/--\-----||-10/------10/--(10)^7-||----------------------||----------------------| repeat 2x|----------------------||----------------------|
Full Full Full Full )\ p )\ p ) )|----/--\----------/--\---------/----------/-------||-10/--(10)^7---10/-(10)^7---10/---10---10/---10---||--------------------------------------------------||--------------------------------------------------||--------------------------------------------------||--------------------------------------------------|
p p |-10^7--------------------------------||------10^7----7-10^7-----------------||-----------10--------9-7---7-9-7-----||-------------------------9-------9-7-||-------------------------------------||-------------------------------------|
p sl.|------------------------------------||------------------------------------||------------------------------------||-7-7-9^7------------------------7-9-||---------9-8-7-5-7-5---5--7-/-9-----||---------------------7--------------|
sl. p |------------------------------------12-15-||-------------11-12-13^12----12-x-15-------||-7-9-11-/-14-------------14---------------||------------------------------------------||------------------------------------------||------------------------------------------|
|-(15)^12----12-15^12-15^12----12-15^12-15^12----12-||---------15----------------15----------------15----||---------------------------------------------------||---------------------------------------------------||---------------------------------------------------||---------------------------------------------------|
Full Full Full Full ) ) ) )|-----/------------/------------/------------/--------||-15-/---------15-/---------15-/---------15-/---------||-14/----------14/----------14/----------14/----------||-----------------------------------------------------||-----------------------------------------------------||-----------------------------------------------------|
4.WHIPLASH
|-----------||----------------------||-----------|---------|---------|---------||-----------||*--------------------*||-----------|---------|---------|---------||-----------||----------------------||-----------|---------|---------|---------||--9--9--9--||---9--------9--9--9---||--9--------|--9------|---------|---------||--7--7--7--||*--7--------7--7--7--*||--7--------|--7------|---------|---------||-----------||----------------------||-----------|---------|---------|---------|
|----------|----------|----------|----------|----------|-----------|----------||----------|----------|----------|----------|----------|-----------|----------||----------|----------|----------|----------|----------|--9--------|----------||----------|----------|----------|----------|----------|--9--------|----------||----------|----------|----------|----------|----------|--7--------|----------||----------|----------|----------|----------|----------|--0--------|----------|
|-----------|----------|------------|-----------|-----------|--------||-----------|----------|------------|-----------|-----------|--------||--9--------|----------|--9--9------|--9--------|--9--------|--------||--9--------|----------|--9--9------|--9--------|--9--------|--------||--7--------|----------|--7--7------|--7--------|--7--------|--------||--0--------|----------|--0--0------|--0--------|--0--------|--------|
play 3 times||---------------------------------|----------------------------------||||*--------------------------------|---------------------------------*||||---------------------------------|----------------------------------||||---------------------------------|------------------7----6----------||||*--------------------------------|------------------7----6----5p0--*||||--0--0-0-0-0-0-0-0-0-0-0-0-0-0-0-|-0-0-0-0-0-0-0-0------------------|| PM.............................................
|---------------------------------|--------------------------------||---------------------------------|--------------------------------||---------------------------------|--------------------------------||---------------------------------|-------------------7----6----5--||---------------------------------|-------------------7----6----5--||--0--0-0-0-0-0-0-0-0-0-0-0-0-0-0-|-0-0-0-0-0-0-0-0----------------| PM.............................................
Rhy Fig 1 end Rhy Fig 1||---------------------------------|--------------------------------||||*--------------------------------|-------------------------------*||||---------------------------------|--------------------------------||||---------------------------------|------------------7----6----5---||||*--------------------------------|------------------7----6----5--*||||--0--0-0-0-0-0-0-0-0-0-0-0-0-0-0-|-0-0-0-0-0-0-0-0----------------|| PM.............................................
play 4 times Rhy Fig 2 end Rhy Fig 2||----------------------------------|------------------------------------||||*---------------------------------|-----------------------------------*||||----------------------------------|------------------------------------||||----------------------------------|------------------------------5-----||||*---------------------------------|------------------------------5----*||||--0-0-0-0-0-0-0-0-0-0-0-0-0-0-0-0-|-0-0-0-0-0-0-0-0-0-0-0-0-0-0--------|| PM.............................................................
S/S
w/ Rhy Fig 2 (4 times)|--------------------------------------||--------------------------------------||--------------------------------------||--------------------------------------||--------------------------------------||--------------------------------------| 1. Late at night... 2.3.4.
Chorus
Rhy Fig 3 end Rhy Fig 3||--------------------|--------------------------------------||||--------------------|--------------------------------------||||--------------------|--------------------------------------||||--5--------5--4--2--|--------------------------------------||||--3--------3--2--0--|-------4--4--4----4--4--4----4--4-----||||--------------------|--0h2--2--2--2----2--2--2----2--2--0--|| PM.............................
Note: Chorus consists of 3x Rhy Fig 3 plus one bar w/ no guitars.
__________________________________ |1,2,3. | w/ Rhy Fig 1 (4 times)||----------------------------------|----------------------------------||||*---------------------------------|---------------------------------*||||----------------------------------|----------------------------------||||----------------------------------|----------------------------------||||*---------------------------------|---------------------------------*||||----------------------------------|----------------------------------||
_________________________________ |4.
||---------------------------------|---------------------------------||||---------------------------------|---------------------------------||||---------------------------------|---------------------------------||||---------------------------------|---------------------------------||||---------------------------------|---------------------------------||||---------------------------------|---------------------------------||
play 4 times Rhy Fig 4 end Rhy Fig 4||----------------------------------|----------------------------------||||*---------------------------------|---------------------------------*||||----------------------------------|----------------------------------||||-----------5-----5----------------|----------5-----5-----------------||||*--7p5-----5-----5----------------|--7p5-----5-----5----------------*||||--------7-----7-------0--0--0--0--|-------7-----7-------0--0--0--0---|| PM.......... PM..........
Guitar solo w/ Rhy Fig 4
|--15p14p12------12--15p14p12------12--17p15p12------12--17p15p12------12--||------------15----------------15----------------15----------------15------||--------------------------------------------------------------------------||--------------------------------------------------------------------------||--------------------------------------------------------------------------||--------------------------------------------------------------------------|
|--17p15p12------12--17p15p12------12--17p15p12------12--17p15p12------12--||------------15----------------15----------------15----------------15------||--------------------------------------------------------------------------||--------------------------------------------------------------------------||--------------------------------------------------------------------------||--------------------------------------------------------------------------|
|--17p15p12------12--17p15p12------12--17p15p12------12--17p15p12------12--||--------------------------------------------------------------------------||------------15----------------15----------------15----------------15------||--------------------------------------------------------------------------||--------------------------------------------------------------------------||--------------------------------------------------------------------------|
|-17b19---------------------------|------------------------------------------------||--------15--15\-------------x--x-|-----12-------12-------12-------14--12----------||-----------------14b16------x--x-|-----12-------12-------12-------14--12-------12-||------------------------12-------|-14-------14-------14-------14-----------14-----||---------------------------------|------------------------------------------------||---------------------------------|------------------------------------------------|
|--------------------12h15p12-----------------------------------------||---------12--15p12------------15-----12--------12--15p12-------------||--14b16---------------------------14b16--14b16--------------14--12\--||---------------------------------------------------------------------||---------------------------------------------------------------------||---------------------------------------------------------------------|
AH AH AH|-------------------------------|-----------------------------||-------------------------------|-----------------------------||--2b4----{2}b4--r{2}-b4----r2--|--{2}b4----rp0------------0--||-------------------------------|----------------2------2-----||-------------------------------|-----------------------------||-------------------------------|-----------------------------|
|--------------------------------------|--------------------------------------||--------------------------------------|--------------------------------------||--2p0h2p0--4p0h4p0--5p0h5p0--4p0h4p0--|--5p0h5p0--7p0h7p0--9p0h9p0--7p0h7p0--||--------------------------------------|--------------------------------------||--------------------------------------|--------------------------------------||--------------------------------------|--------------------------------------|
|------------------------------------------|--------------------------------------||------------------------------------------|------------------------------------7-||-9p0h9p0--10p0h10p0--12p0h12p0--10p0h10p0-|-9p0h9p0--7p0h7p0--9b11---9b10---9----||------------------------------------------|--------------------------------------||------------------------------------------|--------------------------------------||------------------------------------------|--------------------------------------|
|-----------------10p7------7-----7--------------||--10p7-----10p7--------10--7-----7--10p7--------||--------9---------------------9-----------9--7--||------------------------------------------------||------------------------------------------------||------------------------------------------------|
|--------------------------------------------------||--------------------------------------------------||--7--7--9p7---------------------------------------||-------------9p7-----7--9p7-----------------------||------------------9----------9--7--5--------------||--------------------------------------7--7--~--~--|
|--------------------------------------------------------------------||----------------------------------------------------------------12--||--------------------------12-----------------12------12--14b16------||----------------------12--12--12--14p12------12--14-----------------||------12--12--12--14---------------------14-------------------------||--14----------------------------------------------------------------|
|-------------12--15p12------------------------------------------------||---------12-------------15--12------12--15p12------12--15p12------12--||--14b16-------------------------14-------------14-------------14------||----------------------------------------------------------------------||----------------------------------------------------------------------||----------------------------------------------------------------------|
|--------------------------|------------------||--15b17----------------0--|------------------||-----------------------0--|--15b17--r15-\----||--------------------------|------------------||--------------------------|------------------||--------------------------|------------------|
w/ Rhy Fig 1 (4 times)
|-----12--12-----12----12--------12--12--12--------12----12--12--12--12--||--15b17------15b17-------15b17--------------15b17-----------------------||------------------------------------------------------------------------||------------------------------------------------------------------------||------------------------------------------------------------------------||------------------------------------------------------------------------|
|--12-------12----12--12---------12-----12--12---------12--||-----15b17----15b17-----------------15b17------15b17------||-------------------------14b15----------------------------||----------------------------------------------------------||----------------------------------------------------------||----------------------------------------------------------|
|--15--12------12--15p12------12--15p12-------------------------||----------15-------------15-------------15--12--12--12--15p12--||---------------------------------------------------------------||---------------------------------------------------------------||---------------------------------------------------------------||---------------------------------------------------------------|
|---------------------------------------------------------||---------------------------------------------------------||--14--12------12--14p12------12--14p12------12--14--12\--||-----
Tap to rate this tab
 
# A B C D E F G H I J K L M N O P Q R S T U V W X Y Z