Mike Oldfield - In Dulci Jubilo tab

Mike Oldfield
In Dulci Jubilo
Guitar Tab
Standard Tuning - EADGBE
Tabbed By Jonathan Mack

. Palm Mute
\ Slide Down
/ Slide Up
p Pull Off
h Hammer On
b Bend

Intro

Rhythm Guitar0:00|-----------------------------------------||-----------------------------------------||---9----9----9----9----9----9----9----9--||--10---10---10---10---10---10---10---10--| x1|-----------------------------------------||8----8----8----8----8----8----8----8-----| . . . . . . . . . . . . . . . .
Flute Part One
0:04|------12-13-15-17-15|------12-13-15-17-15-->|13-13---------------|13-13----------------->|--------------------|---------------------->|--------------------|---------------------->|--------------------|---------------------->|--------------------|---------------------->
0:08|15-17-15-13-12---|------12----------12-13-->|---------------13|15-15----15-13-15-------->|-----------------|------------------------->|-----------------|------------------------->|-----------------|------------------------->|-----------------|------------------------->
0:12|15-17-15-13-12---|------12----------12-->|---------------13|15-15----15-13-15----->|-----------------|---------------------->|-----------------|---------------------->|-----------------|---------------------->|-----------------|---------------------->
0:16|---------15-13-12-12-----------||10-12-13-------------15-15-13--||-------------------------------||-------------------------------| x1|-------------------------------||-------------------------------|
Flute Part Two
0:20|------12-13-15-17-15\\|------12-13-15-17-15-->|13-13-----------------|13-13----------------->|----------------------|---------------------->|----------------------|---------------------->|----------------------|---------------------->|----------------------|---------------------->
0:24|15-17-15-13-12---|----12----------12-13-->|---------------13|15-----15-13-15-------->|-----------------|----------------------->|-----------------|----------------------->|-----------------|----------------------->|-----------------|----------------------->
0:28|15-17-15-13-12---|------12----------12-------->|---------------13|15-15----15-13-15----15-13-->|-----------------|---------------------------->|-----------------|---------------------------->|-----------------|---------------------------->|-----------------|---------------------------->
0:32|---------15-13-12-12-----------||10-12-13-------------15-15-13--||-------------------------------||-------------------------------||-------------------------------||-------------------------------|
0:36|------12-13-15-17-15\\|------12-13-15-17-15-->|13-13-----------------|13-13----------------->|----------------------|---------------------->|----------------------|---------------------->|----------------------|---------------------->|----------------------|---------------------->
0:40|15-17-15-13-12---|----12----------12-13-->|---------------13|15-----15-13-15-------->|-----------------|----------------------->|-----------------|----------------------->|-----------------|----------------------->|-----------------|----------------------->
0:44|15-17-15-13-12---|----12----------12-------->|---------------13|15-----15-13-15----15-13-->|-----------------|-------------------------->|-----------------|-------------------------->|-----------------|-------------------------->|-----------------|-------------------------->
0:48|---------15-13-12-12-----------||10-12-13-------------15-15-13--||-------------------------------||-------------------------------||-------------------------------||-------------------------------|
0:52|------12-13-15-17-15\\|------12-13-15-17-15-->|13-13-----------------|13-13----------------->|----------------------|---------------------->|----------------------|---------------------->|----------------------|---------------------->|----------------------|---------------------->
0:56|15-17-15-13-12---|----12----------12----12-->|---------------13|15-----15-13-15----15----->|-----------------|-------------------------->|-----------------|-------------------------->|-----------------|-------------------------->|-----------------|-------------------------->
1:00|15-17-15-13-12---|----12----------12-------->|---------------13|15-----15-13-15----15-13-->|-----------------|-------------------------->|-----------------|-------------------------->|-----------------|-------------------------->|-----------------|-------------------------->
1:04|---------15-13-12----------||10-12-13-----------15--13--||---------------------------||---------------------------||---------------------------||---------------------------|
1:08|------12-13-15-17-15\\|------12-13-15-17-15-->|13-13-----------------|13-13----------------->|----------------------|---------------------->|----------------------|---------------------->|----------------------|---------------------->|----------------------|---------------------->
1:13|15-17-15-13-12---|------12----------12-13-->|---------------13|15-15----15-13-15-------->|-----------------|------------------------->|-----------------|------------------------->|-----------------|------------------------->|-----------------|------------------------->
1:17|15-17-15-13-12---|----12----------12-------->|---------------13|15-----15-13-15----15-13-->|-----------------|-------------------------->|-----------------|-------------------------->|-----------------|-------------------------->|-----------------|-------------------------->
1:21|---------15-13-12h13p12-----------||10-12-13----------------15-15-13--| --- Miss The (13)|----------------------------------| Note If You Want|----------------------------------| To Go Straight|----------------------------------| Into The Solo.|----------------------------------|
Solo
Lead Guitar1:24|15h17p15h17p15h17p15h17p15h17-->|------------------------------->|------------------------------->|------------------------------->|------------------------------->|------------------------------->
1:25 1:27 1:30|15-15-13-12------|15-13-12-13-15------|12-10-12----------->|------------13---|---------------13---|---------13-12-10-->|---------------12|------------------12|------------------->|-----------------|--------------------|------------------->|-----------------|--------------------|------------------->|-----------------|--------------------|------------------->
1:31|15-13-12-13-12-13----15-13-12-13-15----------->|------------------15----------------13-12-13-->|---------------------------------------------->|---------------------------------------------->|---------------------------------------------->|---------------------------------------------->
1:34|---------------------10-12-->|10----------10-12-13-------->|---12-10-12----------------->|---------------------------->|---------------------------->|---------------------------->
1:35|15-13-12-13-12-13----15-13-12-13-15----------->|------------------15----------------13-12-13-->|---------------------------------------------->|---------------------------------------------->|---------------------------------------------->|---------------------------------------------->
1:38|---------------------10-12-->|10----------10-12-13-------->|---12-10-12----------------->|---------------------------->|---------------------------->|---------------------------->
1:39|15-13-12-12-13-12----------------12-------->|------------------15-13-12-12-13----13-\\-->|------------------------------------------->|------------------------------------------->|------------------------------------------->|------------------------------------------->
1:42|-----15----15\\-------20----20-22-22-24b-20-22b-20-17-20-15\-->|//17----17-------//20----20----------------------------------->|-------------------------------------------------------------->|-------------------------------------------------------------->|-------------------------------------------------------------->|-------------------------------------------------------------->
1:46 1:49|12-10-12----10------------------|-------10----12----->|---------13----13-12-13-12-10-12|-12-13----13-------->|--------------------------------|----------------12-->|--------------------------------|-------------------->|--------------------------------|-------------------->|--------------------------------|-------------------->
1:50|------------------------10-12-->|13-10----------10-12-13-------->|------12-10-12----------------->|------------------------------->|------------------------------->|------------------------------->
1:52|15-13-12-13-12-13----15-13-12-13-15----------->|------------------15----------------13-12-13-->|---------------------------------------------->|---------------------------------------------->|---------------------------------------------->|---------------------------------------------->
1:54|---------------------10-12-->|10----------10-12-13-------->|---12-10-12----------------->|---------------------------->|---------------------------->|---------------------------->
1:54|15-13-12-12-13-12-----------12-------->|------------------15-13-12-----13-\\-->|-------------------------------------->|-------------------------------------->|-------------------------------------->|-------------------------------------->
1:59|-----15----15\\-------20----20-22-22-24b-20-22b-20-17-20-15\-->|//17----17-------//20----20----------------------------------->|-------------------------------------------------------------->|-------------------------------------------------------------->|-------------------------------------------------------------->|-------------------------------------------------------------->
2:02 2:05|12\13-15-10-12-------------------10-12-13|-------------10-12-15-15-15-->|---------------13-12-13-10-12-13---------|----10-12-13----------------->|-----------------------------------------|12--------------------------->|-----------------------------------------|----------------------------->|-----------------------------------------|----------------------------->|-----------------------------------------|----------------------------->
2:06 2:09|13-15-13-----15-13-12|13-10-12-----------15-13-12------------||---------15----------|----------10-12-13----------15-13------||---------------------|----------------------------------12v--||---------------------|---------------------------------------| x1|---------------------|---------------------------------------||---------------------|---------------------------------------|
Flute Part Three2:14|------12-13-15-17-15|------12-13-15-17-15-->|13-13---------------|13-13----------------->|--------------------|---------------------->|--------------------|---------------------->|--------------------|---------------------->|--------------------|---------------------->
2:18|15-17-15-13-12----------12----------12-13-->|---------------13-15-15----15-13-15-------->|------------------------------------------->|------------------------------------------->|------------------------------------------->|------------------------------------------->
2:22|15-17-15-13-12----------12----------12-------->|---------------13-15-15----15-13-15----15-13-->|---------------------------------------------->|---------------------------------------------->|---------------------------------------------->|---------------------------------------------->
2:26|---------15-13-12-12----------->|10-12-13-------------15-15-13-->|------------------------------->|------------------------------->|------------------------------->|------------------------------->
Lead Guitar2:30|-----15----15\\-------20----20-22-22-24b-20-22b-20-17-20-20-15\-->|//17----17-------//20----20-------------------------------------->|----------------------------------------------------------------->|----------------------------------------------------------------->|----------------------------------------------------------------->|----------------------------------------------------------------->
2:34|12-13-12-10-12-------------------10-12-13-------------10-12-->|---------------13-12-13-10-12-13-------------10-12-13-------->|------------------------------------------12----------------->|------------------------------------------------------------->|------------------------------------------------------------->|------------------------------------------------------------->
2:37|15-13-12-13-12-13----15-13-12-13-15-------12-13-12-13----15-->|------------------15----------------13-15-------------15----->|------------------------------------------------------------->|------------------------------------------------------------->|------------------------------------------------------------->|------------------------------------------------------------->
2:40|13-12-13-15---------|----------------------10-12-->|------------13-12-13|10-----------10-12-13-------->|--------------------|----12-10-12----------------->|--------------------|----------------------------->|--------------------|----------------------------->|--------------------|----------------------------->
2:43|15-13-12-12-13-12---------------------------||------------------15-13-12--13--------------||--------------------------------12---9------||----------------------------------------10--||--------------------------------------------||--------------------------------------------|
Tap to rate this tab
 
# A B C D E F G H I J K L M N O P Q R S T U V W X Y Z