Mike Oldfield - Muse tab

Isn't too hard this one, enjoy




Lead Guitar
                                                                               
E||------------------|------------------|------------------|------------------|B||------------------|------------------|------------------|------------------|G||------------------|------------------|------------------|------------------|D||------------------|------------------|------------------|------------------|A||------------------|------------------|------------------|------------------|E||------------------|------------------|------------------|------------------|
--------------7--5--|--7-------------------|--5----------------0--|--------------------|-------5---------7-8--|----------------3-----|--------------------|----------------------|-------5--------------|--------------------|----------------------|----------------------|--------------------|----------------------|----------------------|--------------------|----------------------|----------------------|
--------5---5---7------|-----0--0--------7--5--7-|-----------------2--3--|--3--------------------|-------------------------|------5-------5--------|-----------------------|--7----------------------|-----------------------|-----------------------|-------------------------|-----------------------|-----------------------|-------------------------|-----------------------|-----------------------|-------------------------|-----------------------|
--5-------------0--2--|--0------7--5-3--2-----|--0------------2--3--|-------3--------------|-----------------------|---------------------|----------------------|-----------------------|---------------------|----------------------|-----------------------|---------------------|----------------------|-----------------------|---------------------|----------------------|-----------------------|---------------------|
--5-------------0-2--3-|-----------------0----|--------5--5-----5----|-------3---------------|------1--------3----3-|----------------------|-----------------------|----------------------|----------------------|-----------------------|----------------------|----------------------|-----------------------|----------------------|----------------------|-----------------------|----------------------|----------------------|
-----0----------7-----|--7----0------0--2-3--5-|---------------0--2--|--3-------------------|------------------------|-------3-------------|----------------------|------------------------|---------------------|----------------------|------------------------|---------------------|----------------------|------------------------|---------------------|----------------------|------------------------|---------------------|
--0------7--5-3--2-----|--2---0---------7--5--|--7----------------2--3--5-|-----------------------|----------------------|--------5-----5--5---------|-----------------------|----------------------|---------------------------|-----------------------|----------------------|---------------------------|-----------------------|----------------------|---------------------------|-----------------------|----------------------|---------------------------|
------------------0---|--------5-5-----5------|---0----------7-5--7-|---------------3----3-|---------------------3-|---------------------|------5---------------|-----------------------|---------------------|----------------------|-----------------------|---------------------|----------------------|-----------------------|---------------------|----------------------|-----------------------|---------------------|
---------------------5-|-----------------------|--------7--5--3--2----|-------5-------7--8----|----------------5--7-5-|----------------------|-----------------------|------7----------------|----------------------|-----------------------|-----------------------|----------------------|-----------------------|-----------------------|----------------------|-----------------------|-----------------------|----------------------|
---2-----------2--3--5-|----------------0-2--|--3----------------0----|-----------------------|------3------3-------|--------1--------3----3-|-----------------------|---------------------|------------------------|-----------------------|---------------------|------------------------|-----------------------|---------------------|------------------------|-----------------------|---------------------|------------------------|
--------5--5-----5---|-----0--------5-----5--|--7----0-----0--0-2--3--5-|---------------------|--3--------------------|--------------------------|---------------------|-----------------------|--------------------------|---------------------|-----------------------|--------------------------|---------------------|-----------------------|--------------------------|---------------------|-----------------------|--------------------------|
---------------0-2--0-|--------7--5-3--2-----|--2----0--------0--2--|------3---------------|----------------------|----------------------|----------------------|----------------------|----------------------|----------------------|----------------------|----------------------|----------------------|----------------------|----------------------|----------------------|----------------------|----------------------|
--3----0-----0-0--2-3---|--5-------------0-2--0-|--------2-3-----3--7-5-|------------------------|-------3---------------|-----------------------|------------------------|-----------------------|-----------------------|------------------------|-----------------------|-----------------------|------------------------|-----------------------|-----------------------|------------------------|-----------------------|-----------------------|
-----------------2--3-|------0-----0--0--2-3--5-|---------------0-2--0-|--------------5-------|-------------------------|------3---------------|----------------------|-------------------------|----------------------|----------------------|-------------------------|----------------------|----------------------|-------------------------|----------------------|----------------------|-------------------------|----------------------|
--------5--5--3-2-----|--0------------0--2--3-|------0-----0--0-2--3--5-|----------------------|-----------------------|-------------------------|----------------------|-----------------------|-------------------------|----------------------|-----------------------|-------------------------|----------------------|-----------------------|-------------------------|----------------------|-----------------------|-------------------------|
----------------0--2-0-|--------2-3----5-----5-|-----------------2-3-|------3----------------|-----------------------|--------------5------|-----------------------|-----------------------|---------------------|-----------------------|-----------------------|---------------------|-----------------------|-----------------------|---------------------|-----------------------|-----------------------|---------------------|
------0-----0--0--2-3--3-|---------------0--2-0-|--------7--5--3-2-----|-------------------------|------3---------------|----------------------|-------------------------|----------------------|----------------------|-------------------------|----------------------|----------------------|-------------------------|----------------------|----------------------|-------------------------|----------------------|----------------------|
--2----0-----0----7--5--|--7---------------2-3--|--5-----------------0----|------------------------|-------5----5--5-------|-----------------3-----3-|------------------------|-----------------------|--------5----------------|------------------------|-----------------------|-------------------------|------------------------|-----------------------|-------------------------|------------------------|-----------------------|-------------------------|
--------5--5-----5------|---0--7----7--5--3--5---|--7-----0----0--0--2--3--|----------------------3-|------------------------|-------------------------|------------------------|------------------------|-------------------------|------------------------|------------------------|-------------------------|------------------------|------------------------|-------------------------|------------------------|------------------------|-------------------------|
--5---------------0---2-|---0-------5---5---3---2-|-------2-----0-------|--------3---------------|-------------------------|---------------------|------------------------|-------------------------|---------------------|------------------------|-------------------------|---------------------|------------------------|-------------------------|---------------------|------------------------|-------------------------|---------------------|
-------0------------|------------------||--------------------|------------------||--------------------|------------------||--------------------|------------------||--------------------|------------------||--------------------|------------------||
Guitarra 2 Guitar Ar
E||------------------|--------------0----------|---0----------0----------|B||------------------|--------0-----------0----|--------0----------0-----|G||------------------|-----0-----0-----------0-|-----------0-----------0-|D||------------------|--2----------------------|-------------------------|A||------------------|-------------------------|-------------------------|E||------------------|-------------------------|-------------------------|
------------0-------------|------------0-------------|--------------0----------|---------0----------------|---------0-------------0--|--------0----------0-----|------0-----------------0-|------0-------------0-----|-----0-----0----------0--|---2-----------------2----|---2-----------2----------|--2----------------------|------------------2-------|--------------------------|-------------------------|---------------0----------|--------------------------|-------------------------|
--------------0----------|-------------------------|--------------------------|--------1----------1-----|--------------3----------|--------0--1--0-----------|-----0-----0----------0--|--------2-----------2----|-----0-----------2--0--2--|-------------------------|--0--4-----4-----4-------|--------------------------|--3----------------------|-------------------------|--3-----------------------|-------------------------|-------------------------|--------------------------|
--------------------------|--------------------------|------------------------|--------------0--------0--|--------0-----0--------0--|------------------------|--------0-----------0-----|--------------------------|----------0----------2--|-----2-----2-----2--------|-----4-----4--------4-----|-------2-------0--4-----|--------------------------|--2--------------2--------|----3-------------------|--0-----------------------|--------------------------|------------------------|
-----------------------|--------------------------|--------------------------|-----------0-----------|--------0-----3-----------|--------------1-----------|--------0--------------|--------------------4-----|--------0-----------0-----|-----2-----------------|-----4-----4-----4-----4--|-----2-----2-----2-----2--|-----------------------|--2-----------------------|--3-----------------------|--0-----------0--------|--------------------------|--------------------------|
--------------------------|--------------------------|--------------3-----------|--------0--1--0-----------|--------2-----------2-----|-----0-----------2--0--2--|--0--4-----4-----4-----4--|--------------------------|--------------------------|--3-----------------------|--------------------------|--------------------------|
--------------------------|--------------------------|--------------1-----------|--------------0-----------|--------0-----------0-----|--------------------------|-----2-----2-----2-----2--|-----0--4--0-----0--4--0--|--3-----------------------|--2-----------------------|--------------------------|--------------------------|
--------------------------|--------------------------|--------------0----------|-----------1--------------|--------------------------|--------0----------0-----|--------0-----------2-----|-----------0--------0-----|-----0-----0----------0--|-----2--------0--4-----4--|--------2-----2--------2--|--2----------------------|--3-----------------------|-----2-----------2--------|-------------------------|--------------------------|--0-----------------------|--0----------------------|
--------------0----------|-------------------------|--------------------------|--------1----------1-----|--------------3----------|--------0--1--0-----------|-----0-----0----------0--|--------2-----------2----|-----0-----------2--0--2--|-------------------------|--0--4-----4-----4-------|--------------------------|--3----------------------|-------------------------|--3-----------------------|-------------------------|-------------------------|--------------------------|
--------------------------|--------------------------|------------------------|--------------0--------0--|--------0-----0--------0--|------------------------|--------0-----------0-----|--------------------------|----------0----------2--|-----2-----2-----2--------|-----4-----4--------4-----|-------2-------0--4-----|--------------------------|--2--------------2--------|----3-------------------|--0-----------------------|--------------------------|------------------------|
-----------------------|--------------------------|--------------------------|-----------0-----------|--------0-----3-----------|--------------1-----------|--------0--------------|--------------------4-----|--------0-----------0-----|-----2-----------------|-----4-----4-----4-----4--|-----2-----2-----2-----2--|-----------------------|--2-----------------------|--3-----------------------|--0-----------0--------|--------------------------|--------------------------|
--------------------------|--------------------------|--------------3-----------|--------0--1--0-----------|--------2-----------2-----|-----0-----------2--0--2--|--0--4-----4-----4-----4--|--------------------------|--------------------------|--3-----------------------|--------------------------|--------------------------|
--------------------------|--------------------------|--------------1-----------|--------------0-----------|--------0-----------0-----|--------------------------|-----2-----2-----2-----2--|-----0--4--0-----0--4--0--|--3-----------------------|--2-----------------------|--------------------------|--------------------------|
--------------------------|--------------------0--2--|-----------1--------------|--------------------------|--------0-----------2-----|-----------0--------0-----|-----2--------0--4-----4--|--------2-----2--------2--|--3-----------------------|-----2-----------2--------|--------------------------|--0-----------------------|
--3-----------0-----------|--------------2-----------|--------------------0-----|--------0-----------3-----|--------0--------0-----0--|--------------------------|-----------2--------------|-----4-----4-----4-----4--|-----2--------------------|--2-----------------------|--0-----------------------|--------------------------|
--------------0-----------|--------------2--3--2-----|--------1-----------1-----|--------3--------------3--|-----0-----0-----0-----0--|-----2-----2--------------|--------------------------|--0-----------------------|--3-----------------------|--------------------------|--------------------------|--------------------------|
--------------0-----------|--------------2-----------|--------1-----------1-----|--------0--3--------0-----|-----0-----0-----0-----0--|--------------------------|--------------------------|-----4-----------4-----4--|--3-----------------------|--2-----------------------|--------------------------|--------------------------|
-----------0-----------0--|-----------0---------2----|--------1-----------3-----|--------0----------0------|-----0-----------2--------|-----0--------0----4---0--|--------------0-----------|--2-----------------------|--3-----------------------|--------------------------|--------------------------|--------------------------|
--3-----------0-----------|--------------2-----------|--------------------0-----|--------0-----------3-----|--------0--------0-----0--|--------------------------|-----------2--------------|-----4-----4-----4-----4--|-----2--------------------|--2-----------------------|--0-----------------------|--------------------------|
--------------0-----------|--------------2--3--2-----|--------1-----------1-----|--------3--------------3--|-----0-----0-----0-----0--|-----2-----2--------------|--------------------------|--0-----------------------|--3-----------------------|--------------------------|--------------------------|--------------------------|
--------------0-----------|--------------2-----------|--------1-----------1-----|--------0--3--------0-----|-----0-----0-----0-----0--|--------------------------|--------------------------|-----4-----------4-----4--|--3-----------------------|--2-----------------------|--------------------------|--------------------------|
-----------0-----------0--|-----------0-------------|--------------0----------|--------1-----------3-----|--------0----------0-----|--------0----------0-----|-----0-----------2--------|-----0--------0-------0--|-----0-----0----------0--|--------------0-----------|--2----------------------|--2----------------------|--3-----------------------|-------------------------|-------------------------|--------------------------|-------------------------|-------------------------|
--------------0----------|-------------------------|--------------------------|--------1----------1-----|--------------3----------|--------0--1--0-----------|-----0-----0----------0--|--------2-----------2----|-----0-----------2--0--2--|-------------------------|--0--4-----4-----4-------|--------------------------|--3----------------------|-------------------------|--3-----------------------|-------------------------|-------------------------|--------------------------|
--------------------------|---------------------------|--------------0--------0--|---------0------3----------|--------0-----------0-----|------------------------4--|-----2-----2-----2--------|-----4-------4------4------|--------------------------|--2------------------------|--0-----------------------|---------------------------|
---------------0----------|---------------0---------0----|------------1-------------|-----3-------0----------------|--------0-----------------|--2--------------------0------|--4----------------0--4---|------------------------------|--4--3--------------------|-----------2-----------0------|--------------------------|---------0-6---------0--------|
---------0------------|------------------||----------------------|------------------||----------------------|------------------||-----0-0--------------|------------------||-------2--------------|------------------||-----0-7--------------|------------------||
Tap to rate this tab
 
# A B C D E F G H I J K L M N O P Q R S T U V W X Y Z