Mike Oldfield – Taurus I tab

                                          Artist - Mike Oldfield
                                         ************************
                                             Song - Taurus I
                                            *****************
                                               Album - QE2
                                              *************
                                          Tabbed By - Ayreon77
                                         **********************


This is the Mandolin intro for Taurus I. i've had this for years and came upon it
I'd thought i would upload it. its a nice Mandolin part to play too.


Mandolin
*********
  
|-------------------0--5-3-2-3-5-0--| |-------0---0-2-3-5-----------------| |-2-2-2---2-------------------------| |-----------------------------------|
|-0-2-3-5-3-2-3-0-----------------0-||------------------5-3-2-3-2-3-5----||-----------------------------------||-----------------------------------|
|-------------------0--5-3-2-3-5-0--||-------0---0-2-3-5-----------------||-2-2-2---2-------------------------||-----------------------------------|
|-0-2-3-5-3-2-3-0-----------------0-||------------------5-3-2-3-2-3-5----||-----------------------------------||-----------------------------------|
|-0-0-0---------------0--------0----||-----------------0-2---5-4-5----2--||---------2-2-4-5-------------------||-------4---------------------------|
|-------0---------------------------||-2-4-5---5-4-5-2-0-----------0-2---||-------------------5-4-5-4-5-------||-----------------------------------|
|---------------------0--------0----||-----------------0-2---5-4-5----2--||-------2---2-4-5-------------------||-4-4-4---4-------------------------|
|-------0---------------------------||-2-4-5---5-4-5-2-0-----------0-2---||-------------------5-4-5-4-5-------||-----------------------------------|
|-------------------0--5-3-2-3-5-0--||-------0---0-2-3-5-----------------||-2-2-2---2-------------------------||-----------------------------------|
|-0-2-3-5-3-2-3-0-----------------0-||------------------5-3-2-3-2-3-5----||-----------------------------------||-----------------------------------|
|-------------------0--5-3-2-3-5-0--||-------0---0-2-3-5-----------------||-2-2-2---2-------------------------||-----------------------------------|
|-0-2-3-5-3-2-3-0-----------------0-||------------------5-3-2-3-2-3-5----||-----------------------------------||-----------------------------------|
|-0-0-0-----------0-2--7-5-4-5-7-2--||---------2-2-4-5-------------------||-------4---------------------------||-----------------------------------|
|-2-4-5-7-5-4-2-0-----------0-2-----||-----------------5-4-5-4-5---------||-----------------------------------||-----------------------------------|
|-----------------0-2--7-5-4-5-7-2--||-------2---2-4-5-------------------||-4-4-4---4-------------------------||-----------------------------------|
|-2-4-5-7-5-4-2-0-----------0-2-----||-----------------5-4-5-4-5---------||-----------------------------------||-----------------------------------|
|-2-2-2---------------0--------0----||-----------------0-2---5-4-5----2--||---------2-2-4-5-------------------||-------4---------------------------|
|-------0---------------------------||-2-4-5---5-4-5-2-0-----------0-2---||-------------------5-4-5-4-5-------||-----------------------------------|
|---------------------0--------0----||-----------------0-2---5-4-5----2--||-------2---2-4-5-------------------||-4-4-4---4-------------------------|
|-------0---------------------------||-2-4-5---5-4-5-2-0--2-4-5----------||-----------------------------------||-----------------------------------|
Enjoy...............
Please rate this tab:
x1.0