Miku Hatsune - Stargazer tab

The tab isnt mine and i dont know who's it is ... anyway enjoy ;) 


Tempo = 195

Legend
L - tied note
x - dead note
h - hammer on/pull off
b - bend
s - slide
~ - vibrato
g - ghost note
> - accentuated note
t - trill
M - palm mute
. - staccato
P - popping (bass)
S - slapping (bass)
+ - tapping
W - wide vibrato
< - fade in
w - whammy bar
= - tremolo picking
v - brush up
^ - brush down
V - pick stroke up
n - pick stroke down


E |----------------------------------------------------|B |----------------------------------------------------|G |--14----------13----9-----------9--9--9-------------|D |----------------------------------------------------|A |--12----------11----7-----------7--7--7-------------|E |----------------------------------------------------|
----------------------------------------------------|----------------------------------------------------|--14----------13----9-----------9--9--9-------------|----------------------------------------------------|--12----------11----7-----------7--7--7-------------|----------------------------------------------------|
----------------------------------------------------|----------------------------------------------------|--14----------13----9-----------9--9--9-------------|----------------------------------------------------|--12----------11----7-----------7--7--7-------------|----------------------------------------------------|
----------------------------|----------------------------|--16-------14-------13------|----------------------------|--14-------12-------11------|----------------------------|
----------------------------------------------------|----------------------------------------------------|--14----------13----9-----------9--9--9-------------|----------------------------------------------------|--12----------11----7-----------7--7--7-------------|----------------------------------------------------|
----------------------------------------------------|----------------------------------------------------|--14----------13----9-----------9--9--9-------------|----------------------------------------------------|--12----------11----7-----------7--7--7-------------|----------------------------------------------------|
----------------------------------------------------|----------------------------------------------------|--14----------13----9-----------9--9--9-------------|----------------------------------------------------|--12----------11----7-----------7--7--7-------------|----------------------------------------------------|
----------------------------|----------------------------|--16-------14-------16------|----------------------------|--14-------12-------14------|----------------------------|
----------------------------------------------------|----------------------------------------------------|--14----------13----9-----------9--9--9-------------|----------------------------------------------------|--12----------11----7-----------7--7--7-------------|----------------------------------------------------|
----------------------------------------------------|----------------------------------------------------|--14----------13----9-----------9--9--9-------------|----------------------------------------------------|--12----------11----7-----------7--7--7-------------|----------------------------------------------------|
----------------------------------------------------|----------------------------------------------------|--14----------13----9-----------9--9--9-------------|----------------------------------------------------|--12----------11----7-----------7--7--7-------------|----------------------------------------------------|
----------------------------|----------------------------|--16-------14-------13------|----------------------------|--14-------12-------11------|----------------------------|
----------------------------------------------------|----------------------------------------------------|--14----------13----9-----------9--9--9-------------|----------------------------------------------------|--12----------11----7-----------7--7--7-------------|----------------------------------------------------|
----------------------------|----------------------------|-------|----------------------------|----------------------------|-------|--14----13-9--------13------|--14-------16-------13------|--14---|----------------------------|----------------------------|-------|--12----11-7--------11------|--12-------14-------11------|--12---|----------------------------|----------------------------|-------|
----------------------------|-------|----------------------------|-------|----------------------------|-------|----------------------------|-------|----------------------------|-------|--6--6----------------------|-------|--7--7----------------------|-------|--6--6----------------------|-------|--7--7----------------------|-------|--4--4----------------------|-------|--5--5----------------------|-------|----------------------------|-------|
----------------------------|----------------|----------------------------|----------------------------|----------------|----------------------------|--11-11---------------------|-----------11---|--9--9----------------------|--11-11---------------------|-----------11---|--9--9----------------------|--9--9----------------------|-----------9----|--7--7----------------------|----------------------------|----------------|----------------------------|
----------------|----------------------------|----------------|----------------|----------------------------|----------------|-----------9----|----------------------------|----------------|-----------9----|--7--7----------------------|-----------7----|-----------7----|--7--7----------------------|-----------7----|----------------|--5--5----------------------|-----------5----|
----------------------------|----------------|----------------------------|----------------------------|----------------|----------------------------|--6--6----------------------|-----------6----|----------------------------|--6--6----------------------|-----------6----|--4--4--4--4--4--4--4--4----|--4--4----------------------|-----------4----|--4--4--4--4--4--4--4--4----|----------------------------|----------------|--2--2--2--2--2--2--2--2----|
----------------------------|-------|-------|----------------------------|----------------------------|-------|-------|--------7-----7-------------|--9--9--9--9--9--9--9--9----|--7L---|--7----|-----------7M----7M---------|--9--9--9--9--9--9--9--9----|--7L---|--7----|-----7M-------------7M------|--7--7--7--7--7--7--7--7----|--5L---|--5----|--5M-------------------5M---|----------------------------|-------|-------|----------------------------|
----------------------------|--------------4-------------|--------9-----9-------------|--------6-----6-------------|--------------9-------------|--------6-----6-------------|-----9M----9M-9-------------|-----6M---------------------|--7M------------------------|--4M------------------------|----------------------------|----------------------------|
-----------5----------------|--------------5-------------|--7-----------7-----7-------|--------7-----7-------------|-----7M----------7M----7M---|--------7-----7-------------|--------7M------------------|-----7M---------------------|----------------------------|--5M------------------------|----------------------------|----------------------------|
----------------------------|--------------9-------------|--------9-----9-------------|-----------10----10---------|--------------9-------------|--------11M---------11M-----|-----9M----9M-9-------------|-----11M---------------11M--|--7M------------------------|--9M------------------------|----------------------------|----------------------------|
--------------12------------|--------------5-------------|-----------14----14---------|--------7-----7-------------|--------14M---------14------|--------7-----7-------------|-----14M---------------14---|-----7M---------------------|--12M-----------------------|--5M------------------------|----------------------------|----------------------------|
----------------------------|--------------4-------------|--------9-----9-------------|--------6-----6-------------|--------------9-------------|--------6-----6-------------|-----9M----9M-9-------------|-----6M---------------------|--7M------------------------|--4M------------------------|----------------------------|----------------------------|
-----------5----------------|----------------------------|--7-----------7-----7-------|----------------------------|-----7M----------7M----7M---|--------7--------7----------|--------7M------------------|--------7--------7----------|----------------------------|--5M-5M-5--5M-5M-5--5M-5M---|----------------------------|----------------------------|
----------------------------|----------------------------|----------------------------|----------------------------|--7--------7--------7-------|--------11-------11---------|--7--------7--------7-------|--------11-------11---------|--5--5M-5M-5--5M-5M-5-------|--9M-9M-9--9M-9M-9--9M-9M---|----------------------------|----------------------------|
----------------------------|----------------------------|----------------------------|----------------------------|--------10-------10---------|--------9--------9----------|--------10-------10---------|--------9--------9----------|--8M-8M-8--8M-8M-8--8M-8M---|--7M-7M-7--7M-7M-7--7M-7M---|----------------------------|----------------------------|
----------------------------|----------------------------|----------------------------|----------------------------|--9--------9--------9-------|--14-14-14-13-------14-14---|--9--------9--------9-------|----------------------------|--7--7M-7M-7--7M-7M-7-------|--12-12-12-11-------12-12---|----------------------------|----------------------------|
----------------------------|----------------------------|----------------------------|----------------------------|--14-13---------------------|--7-----7-----7--7--7--7----|----------------------------|--7-----7-----7--7--7--7----|--12-11---------------------|--5-----5-----5--5--5--5----|----------------------------|----------------------------|
----------------------------|----------------------------|----------------------------|----------------------------|--9-----9--9--9-----9--9----|--6-----6-----6--6--6--6----|--9-----9--9--9-----9--9----|--6-----6-----6--6--6--6----|--7-----7--7--7-----7--7----|--4-----4-----4--4--4--4----|----------------------------|----------------------------|
----------------------------|----------------------------|----------------------------|----------------------------|--11----11-11-11----11-11---|--9-----9-----9--9--9--9----|--11----11-11-11----11-11---|--9-----9-----9--9--9--9----|--9-----9--9--9-----9--9----|--7-----7-----7--7--7--7----|----------------------------|----------------------------|
----------------------------|----------------------------|----------------------------|----------------------------|--6-----6--6--6-----6--6----|--11----11----11-11-11-11---|--6-----6--6--6-----6--6----|--11----11----11-11-11-11---|--4-----4--4--4-----4--4----|--9-----9-----9--9--9--9----|----------------------------|----------------------------|
----------------------------|----------------------------|----------------------------|----------------------------|--14-14----14----14-14-14---|--7-----7-----7--7--7--7----|--14-14----14----14-14-14---|--7-----7-----7--7--7--7----|--12-12----12----12-12-12---|--5-----5-----5--5--5--5----|----------------------------|----------------------------|
----------------------------|----------------------------|----------------------------|----------------------------|--9-----9--9--9-----9--9----|--6-----6-----6--6--6--6----|--9-----9--9--9-----9--9----|--6-----6-----6--6--6--6----|--7-----7--7--7-----7--7----|--4-----4-----4--4--4--4----|----------------------------|----------------------------|
----------------------------|----------------------------|----------------------------|----------------------------|--11----11-11-11----11-11---|--7-----7-----7--7--7--7----|--11----11-11-11----11-11---|--7-----7-----7--7--7--7----|--9-----9--9--9-----9--9----|--5-----5-----5--5--5--5----|----------------------------|----------------------------|
----------------------------|----------------------------|----------------------------|----------------------------|--7-----7--7--7-----7--7----|--9-----9-----9--9--9--9----|--7-----7--7--7-----7--7----|--9-----9-----9--9--9--9----|--5-----5--5--5-----5--5----|--7-----7-----7--7--7--7----|----------------------------|----------------------------|
----------------------------|----------------------------|----------------------------|----------------------------|--11----11-11-11----11-11---|--14-x--x--13-x--x--9-------|--11----11-11-11----11-11---|----------------------------|--9-----9--9--9-----9--9----|--12-x--x--11-x--x--7-------|----------------------------|----------------------------|
----------------------------|----------------------------|----------------------------|----------------------------|--16-14-x--13-x--x--14------|--14-x--x--13-x--x--16-x----|----------------------------|----------------------------|--14-12-x--11-x--x--12------|--12-x--x--11-x--x--14-x----|----------------------------|----------------------------|
----------------------------|----------------------------|----------------|----------------------------|----------------------------|----------------|--14-x--x--13-x--x--14------|--14-------13-------9L------|--9--6--7--9L---|----------------------------|----------------------------|----------------|--12-x--x--11-x--x--12------|--12-------11-------7L------|--7--4--5--7L---|----------------------------|----------------------------|----------------|
----------------------------|-------|----------------------------|----------------------------|-------|----------------------------|--9-----------------11-9L---|--9----|----------------------------|----------------------------|-------|----------------------------|--7-----------------9--7L---|--7----|--12-0--0--11-0--0--7--0----|----------------------------|-------|----------------------------|
----------------------------|----------------------------|----------------------------|----------------------------|----------------------------|----------------------------|----------------------------|----------------------------|--0--9--0--0--4--0--5--0----|--4--------2--------0-------|----------------------------|----------------------------|
----------------------------|-------|----------------|--12L--|--12---|----------------------------|-------|-----------10---|-------|-------|----------------------------|-------|----------------|-------|-------|----------------------------|-------|----------------|-------|-------|--2--------4--------5-------|--7L---|--7-------------|-------|-------|----------------------------|-------|----------------|-------|-------|
----------------------------|----------------------------|----------------------------|----------------------------|--------6--------6-----6----|--------7--------7-----7----|--------6--------6-----6----|--------7--------7-----7----|--4M-4M-4--4M-4M-4--4M-4----|--5M-5M-5--5M-5M-5--5M-5----|----------------------------|----------------------------|
----------------------------|----------------------------|----------------------------|----------------------------|--------9--------9-----9----|--------11-------11----11---|--------9--------9-----9----|--------11-------11----11---|--7M-7M-7--7M-7M-7--7M-7----|--9M-9M-9--9M-9M-9--9M-9----|----------------------------|----------------------------|
----------------------------|----------------------------|----------------------------|----------------------------|--------6--------6-----6----|--------7--------7-----7----|--------6--------6-----6----|--------7--------7-----7----|--4M-4M-4--4M-4M-4--4M-4----|--5M-5M-5--5M-5M-5--5M-5----|----------------------------|----------------------------|
----------------------------|----------------------------|----------------------------|----------------------------|--------9--------9-----9----|--------11-------11----11---|--------9--------9-----9----|--------11-------11----11---|--7M-7M-7--7M-7M-7--7M-7----|--9M-9M-9--9M-9M-9--9M-9----|----------------------------|----------------------------|
----------------------------|----------------------------|----------------------------|----------------------------|--------6--------6-----6----|--------7--------7-----7----|--------6--------6-----6----|--------7--------7-----7----|--4M-4M-4--4M-4M-4--4M-4----|--5M-5M-5--5M-5M-5--5M-5----|----------------------------|----------------------------|
----------------------------|----------------------------|----------------------------|----------------------------|--------9--------9-----9----|--------11-------11----11---|--------9--------9-----9----|--------11-------11----11---|--7M-7M-7--7M-7M-7--7M-7----|--9M-9M-9--9M-9M-9--9M-9----|----------------------------|----------------------------|
----------------------------|----------------------------|----------------------------|----------------------------|--------6--------6-----6----|--------7--------7-----7----|--------6--------6-----6----|--------7--------7-----7----|--4M-4M-4--4M-4M-4--4M-4----|--5M-5M-5--5M-5M-5--5M-5----|----------------------------|----------------------------|
----------------------------|----------------------------|-------|-------|----------------------------|----------------------------|-------|-------|--------9--------9-----9----|--------9--------9-----9----|--6----|-------|--------9--------9-----9----|--------9--------9-----9----|--6----|-------|--7M-7M-7--7M-7M-7--7M-7----|--7M-7M-7--7M-7M-7--7M-7----|--4----|-------|----------------------------|----------------------------|-------|-------|
-------|-------|-------|-------|-------|-------|-------|-------|-------|-------|-------|-------|-------|-------|-------|-------|-------|-------|-------|-------|-------|-------|-------|-------|-------|-------|-------|-------|-------|-------|-------|-------|-------|-------|-------|-------|-------|-------|-------|-------|-------|-------|-------|-------|-------|-------|-------|-------|
----------------------------|----------------------------|----------------------------|----------------------------|--7-----7-----7--7--7--7----|--9-----9--9--9-----9--9----|--7-----7-----7--7--7--7----|--9-----9--9--9-----9--9----|--5-----5-----5--5--5--5----|--7-----7--7--7-----7--7----|----------------------------|----------------------------|
----------------------------|--------------9-------------|----------------------------|-----------10----10---------|--6-----6-----6--6--6--6----|--------11----------11------|--6-----6-----6--6--6--6----|-----11----------------11---|--4-----4-----4--4--4--4----|--9-------------------------|----------------------------|----------------------------|
----------------------------|----------------------------|----------------------------|----------------------------|--7-----7-----7--7--7--7----|--9-----9--9--9-----9--9----|--7-----7-----7--7--7--7----|--9-----9--9--9-----9--9----|--5-----5-----5--5--5--5----|--7-----7--7--7-----7--7----|----------------------------|----------------------------|
----------------------------|-----------------12---------|----------------------------|--------------------12------|--11----11----11-11-11-11---|--14-14----14----------14---|--11----11----11-11-11-11---|--14-14----14---------------|--9-----9-----9--9--9--9----|--12-12----12---------------|----------------------------|----------------------------|
----------------------------|----------------------------|----------------------------|----------------------------|--14-x--x--13-x--x--9-------|--16-14-x--13-x--x--14------|----------------------------|----------------------------|--12-x--x--11-x--x--7-------|--14-12-x--11-x--x--12------|----------------------------|----------------------------|
----------------------------|----------------------------|----------------------------|----------------------------|--14-x--x--13-x--x--9-------|--16-14-x--13-x--x--14------|----------------------------|----------------------------|--12-x--x--11-x--x--7-------|--14-12-x--11-x--x--12------|----------------------------|----------------------------|
----------------------------|----------------------------|----------------------------|----------------------------|--14-x--x--13-x--x--9-------|--16-14-x--13-x--x--14------|----------------------------|----------------------------|--12-x--x--11-x--x--7-------|--14-12-x--11-x--x--12------|----------------------------|----------------------------|
----------------------------|----------------------------|----------------|----------------------------|----------------------------|----------------|--14-x--x--13-x--x--9-------|--16-14-x--13-x--x--14------|--14-13-9L------|----------------------------|----------------------------|----------------|--12-x--x--11-x--x--7-------|--14-12-x--11-x--x--12------|--12-11-7L------|----------------------------|----------------------------|----------------|
-------|----------------|-------|----------------------------|----------------|-------|----------------|-------|----------------------------|----------------|--9----|--14-13-9L------|--9----|--14-------13-------9L------|--9--6--7--9L---|-------|----------------|-------|----------------------------|----------------|--7----|--12-11-7L------|--7----|--12-------11-------7L------|--7--4--5--7L---|-------|----------------|-------|----------------------------|----------------|
----------------------------|-------|----------------------|----------------------------|-------|----------------------|--9-----------------11-9L---|--9----|--14-13-9--14-13-9----|----------------------------|-------|----------------------|--7-----------------9--7L---|--7----|----------------------|----------------------------|-------|----------------------|
----------------------|----------------------|----------------------|----------------------|----------------------|----------------------|--14-13-9--14-13-9----|--14-13-9--14-13-9----|--14-13-14-16-14-9----|----------------------|----------------------|----------------------|----------------------|----------------------|----------------------|----------------------|----------------------|----------------------|
----------------------|----------------------|----------------------|----------------------|----------------------|----------------------|--14-13-9--14-13-9----|--14-13-9--14-13-9----|--14-13-9--14-13-9----|----------------------|----------------------|----------------------|----------------------|----------------------|----------------------|----------------------|----------------------|----------------------|
----------------------|-------|-------|-------||----------------------|-------|-------|-------||--14-13-14-16-14-9----|--14L--|--14L--|--14---||----------------------|-------|-------|-------||----------------------|-------|-------|-------||----------------------|-------|-------|-------||
Tap to rate this tab
 
# A B C D E F G H I J K L M N O P Q R S T U V W X Y Z