Milburn - What You Could Have Won tab

[It's a pretty easy song to play really, just looks hard because theres a lot of it. 
to the song for the timings on the solo. Good luck!]


A
It's closing time and it's getting late
E                                                A
Can you fetch my coat cos i don't feel too great, anymore
                   E
But i want to stay, oh don't you want to stay as well?
A
I don't think that you do
E
I've got this funny feeling that you don't feel like i do
A
This conversations just passing you by
E
I know it i can see it in your eyes
A
You've had one too many, low and behold
C#
You're telling the secrets that can't be told
E
You feel so special, it feels so bold
B
But then you knock me back and i fall
              A  G#  F# E  A A A G# F# E A A G# F# E
I fall to the floor!

CHORUS:
                        A  G#  F# E  A A A G# F# E A A G# F# E
When all I wanted was a kiss

When all I wanted was a chance tonight..

LEAD AFTER CHORUS


-------------------------------------------|-------------------------------------------|-------------------9-----------------------|---------------------11--9-----------------|--7-7-9-9-11-11-------------11-9-11-9-7----|-------------------------------------------|
-------------------------------------------|-------------------------------------------|-------------------9-----------------------|---------------------11--9-----9-----------|--7-7-9-9-11-11-------------11---11--------|-------------------------------------------|
-------------------------------------------|-------------------------------------------|-------------------9-----------------------|---------------------11--9-----------------|--7-7-9-9-11-11-------------11-9-11-9-7----|-------------------------------------------|
-------------------------------------------|-------------------------------------------|-------------------9-----------------------|---------------------11--9-----9-----7-----|--7-7-9-9-11-11-------------11---11--------|-------------------------------------------|
Verse 2 A I'm walking home half pissed and i'm frozen E My minds warmer by the little token of you A In your little ways E Still they're sleeping in your bed today A And now beeps the phone E I fumble round to answer but I end up putting it on hold A Late night taxis keep passing me by E I feel sick and look to the sky A I've had one too many, low and behold C# The late night lovers stay out in the cold E I ring your number i feel so bold B You kick me into touch and i fall A G# F# E A A A G# F# E A G# F# E I fall to the floor! CHORUS: A G# F# E A A A G# F# E A A G# F# E When all I wanted was a kiss A G# F# E A A A G# F# E A A G# F# E And all I wanted was a chance tonight A G# F# E A A A G# F# E A A G# F# E And yeah your ignorance was bliss A Yeah your ignorance was paradise
|-----------------------------------------------------------------------||-----------------------------------------------------------------------||-----------------------------------------------------------------------||--7-[x16]-----------7-[x8]-11-[x3]--9-[x3]--------6-[x7]-7-6-[x8]------||----------7-[x16]--------------------------7-7-------------------------||-----------------------------------------------------------------------|
-------------------------------------|-------------------------------------|----------6-[x16]-9-[x16]------------|--7-[x16]-----------------6-[x9]-----|-------------------------------------|-------------------------------------|
SOLO:
-------------------------------------------|-------------------------------------------|-------------------9-----------------------|---------------------11--9-----------------|--7-7-9-9-11-11-------------11-9-11-9-7----|-------------------------------------------|
-------------------------------------------|-------------------------------------------|-------------------9-----------------------|---------------------11--9-----9-----------|--7-7-9-9-11-11-------------11---11--------|-------------------------------------------|
-------------------------------------------|-------------------------------------------|-------------------9-----------------------|---------------------11--9-----------------|--7-7-9-9-11-11-------------11-9-11-9-7----|-------------------------------------------|
-------------------------------------------|-------------------------------------------|-------------------9-----------------------|---------------------11--9--11-9-11--------|--7-7-9-9-11-11----------------------------|-------------------------------------------|
-------------------------------------------|-------------------------------------------|-------------------9-----------------------|---------------------11--9-----------------|--7-7-9-9-11-11-------------11-9-11-9-7----|-------------------------------------------|
-------------------------------------------|-------------------------------------------|-------------------9-----------------------|---------------------11--9-----9-----------|--7-7-9-9-11-11-------------11---11--------|-------------------------------------------|
-------------------------------------------|-------------------------------------------|-------------------9-----------------------|---------------------11--9-----------------|--7-7-9-9-11-11-------------11-9-11-9-7----|-------------------------------------------|
-------------------------------------------|-------------------------------------------|-------------------9-9---------------------|----------------------11-11-9-9-------9-9--|--7-7-9-9-11-11-----------------11-11------|-------------------------------------------|
------------------|------------------|------------------|------------------| x6--7-7-9-11-9-7----|------------------|
-----------------------------|--9-[x8]-11-11-11-11-9-9-11--|-----------------------------|-----------------------------|-----------------------------|-----------------------------|
------------------12-----------------------|---------------------14-12-----------------|-9-9-11-11-13-13-----------13-11-13-11-9---|-------------------------------------------|-------------------------------------------|-------------------------------------------|
------------------12-----------------------|---------------------14-12----------12-----|-9-9-11-11-13-13-----------13-11-13----13--|-------------------------------------------|-------------------------------------------|-------------------------------------------|
------------------12-----------------------|---------------------14-12-----------------|-9-9-11-11-13-13-----------13-11-13-11-9---|-------------------------------------------|-------------------------------------------|-------------------------------------------|
------------------12-12--------------------------|------------------------14-14-12-12-------12-12--|-9-9-11-11-13-13--------------------13-13--------|-------------------------------------------------|-------------------------------------------------|-------------------------------------------------|
------------------|------------------|--9-9-11-13-11-9--|------------------| x4------------------|------------------|
---------------------------------------------------------------------------|-12-12-12-12-12-9-9----12-12-12-12-9-9-9-9-7-7-7-7-5-5-5-5-----------------|-----------------------------------------------------------6-6-6-6-4-4-4-4-|---------------------------------------------------------------------------|---------------------------------------------------------------------------|---------------------------------------------------------------------------|
----------------|----------------|----------------|-7-6-7/11-9--2--|-------------2--|-------------0--|
Tap to rate this tab
 
# A B C D E F G H I J K L M N O P Q R S T U V W X Y Z