Millencolin - Lozin Must tab

Intro:

|-----------------------------------------------------------------------------||-----------------------------------------------------------------------------||-----------------------------------------------------------------------------||-9--9-9-9-9-9-9-2--2-2-2-2-2-2-9--9-9-9-9-9-9-2--2-2-2-2-2-2-6--6-6-6-6-6-6--||-9--9-9-9-9-9-9-2--2-2-2-2-2-2-9--9-9-9-9-9-9-2--2-2-2-2-2-2-6--6-6-6-6-6-6--||-7--7-7-7-7-7-7-0--0-0-0-0-0-0-7--7-7-7-7-7-7-0--0-0-0-0-0-0-4--4-4-4-4-4-4--|
|-----------------------------------------------||-----------------------------------------------||-6--6-6-6-6-6-6--------------------------------||-6--6-6-6-6-6-6-2--2-2-2-2-2-2-2-2-2-2-2-2-2-2-||-4--4-4-4-4-4-4-2--2-2-2-2-2-2-2-2-2-2-2-2-2-2-||----------------0--0-0-0-0-0-0-0-0-0-0-0-0-0-0-| [-pm-----------------------]
|-----------------------------------------------------------------------------||-----------------------------------------------------------------------------||-----------------------------------------------------------------------------||-9--9-9-9-9-9-9-2--2-2-2-2-2-2-9--9-9-9-9-9-9-2--2-2-2-2-2-2-6--6-6-6-6-6-6--||-9--9-9-9-9-9-9-2--2-2-2-2-2-2-9--9-9-9-9-9-9-2--2-2-2-2-2-2-6--6-6-6-6-6-6--||-7--7-7-7-7-7-7-0--0-0-0-0-0-0-7--7-7-7-7-7-7-0--0-0-0-0-0-0-4--4-4-4-4-4-4--|
|-----------------------------------------------||-----------------------------------------------||-6--6-6-6-6-6-6--------------------------------||-6--6-6-6-6-6-6-2--2-2-2-2-2-2-2-2-2-2-2-2-2-2-||-4--4-4-4-4-4-4-2--2-2-2-2-2-2-2-2-2-2-2-2-2-2-||----------------0--0-0-0-0-0-0-0-0-0-0-0-0-0-0-| [pm-------------------------]
|--------------------------------||--------------------------------||-9--9-9-9-9-9-9-9-9-9-9-9-9-9-9-||-9--9-9-9-9-9-9-9-9-9-9-9-9-9-9-||-7--7-7-7-7-7-7-7-7-7-7-7-7-7-7-||--------------------------------|
Chorus:
|----------------------------------------------------------------||----------------------------------------------------------------||---------------------------------8--8-8-8-8-8-8-8-8-8-8-8-8-8-8-||-9--9-9-9-9-9-9-9-9-9-9-9-9-9-9--8--8-8-8-8-8-8-8-8-8-8-8-8-8-8-||-9--9-9-9-9-9-9-9-9-9-9-9-9-9-9--6--6-6-6-6-6-6-6-6-6-6-6-6-6-6-||-7--7-7-7-7-7-7-7-7-7-7-7-7-7-7---------------------------------|
|----------------------------------------------------------------||----------------------------------------------------------------||---------------------------------9--9-9-9-9-9-9-9-9-9-9-9-9-9-9-||-6--6-6-6-6-6-6-6-6-6-6-6-6-6-6--9--9-9-9-9-9-9-9-9-9-9-9-9-9-9-||-6--6-6-6-6-6-6-6-6-6-6-6-6-6-6--7--7-7-7-7-7-7-7-7-7-7-7-7-7-7-||-4--4-4-4-4-4-4-4-4-4-4-4-4-4-4---------------------------------|
Fill 1:
|---||---||-9-||-9-||-7-||---|
Fill 2:
|-------------------------------------------||-------------------------------------------||-----------------------8--8--8--8--8--8--8-||-9-9-9--9--9--9--9--9--8--8--8--8--8--8--8-||-9-9-9--9--9--9--9--9--6--6--6--6--6--6--6-||-7-7-7--7--7--7--7--7----------------------| [pm----------] [pm-------------]
|-------------------------------------------||-------------------------------------------||-9-9-9--9--9--9--9--9-11-11-11-11-11-11-11-||-9-9-9--9--9--9--9--9-11-11-11-11-11-11-11-||-7-7-7--7--7--7--7--7--9--9--9--9--9--9--9-||-------------------------------------------| [pm-------------] [pm--------------]
|--------------------------------------------||--------------------------------------------||-----------------------8-8-8--8--8--8--8--8-||-9-9-9--9--9--9--9--9--8-8-8--8--8--8--8--8-||-9-9-9--9--9--9--9--9--6-6-6--6--6--6--6--6-||-7-7-7--7--7--7--7--7-----------------------| [pm-------------] [pm-------------]
|-----------------------------------------||-----------------------------------------||-9-9-9-9-9-9-9-9-11-11-11-11-11-11-11-11-||-9-9-9-9-9-9-9-9-11-11-11-11-11-11-11-11-||-7-7-7-7-7-7-7-7--9--9--9--9--9--9--9--9-||-----------------------------------------|
Interlude:
|---------------------------------------------------------------||---------------------------------------------------------------||---------------------------------------------------------------||-6--6-6-6-6-6-6-6-6-6-6-6-6-6-6-2--2-2-2-2-2-2-2-2-2-2-2-2-2-2-||-6--6-6-6-6-6-6-6-6-6-6-6-6-6-6-2--2-2-2-2-2-2-2-2-2-2-2-2-2-2-||-4--4-4-4-4-4-4-4-4-4-4-4-4-4-4-0--0-0-0-0-0-0-0-0-0-0-0-0-0-0-|
|---------------------------------------------------------------||---------------------------------------------------------------||---------------------------------------------------------------||-6--6-6-6-6-6-6-6-6-6-6-6-6-6-6-2--2-2-2-2-2-2-2-2-2-2-2-2-2-2-||-6--6-6-6-6-6-6-6-6-6-6-6-6-6-6-2--2-2-2-2-2-2-2-2-2-2-2-2-2-2-||-4--4-4-4-4-4-4-4-4-4-4-4-4-4-4-0--0-0-0-0-0-0-0-0-0-0-0-0-0-0-|
|---------------------------------------------------------------||---------------------------------------------------------------||---------------------------------------------------------------||-6--6-6-6-6-6-6-6-6-6-6-6-6-6-6-4--4-4-4-4-4-4-4-4-4-4-4-4-4-4-||-6--6-6-6-6-6-6-6-6-6-6-6-6-6-6-4--4-4-4-4-4-4-4-4-4-4-4-4-4-4-||-4--4-4-4-4-4-4-4-4-4-4-4-4-4-4-2--2-2-2-2-2-2-2-2-2-2-2-2-2-2-|
|---------------------------------------------------------------||---------------------------------------------------------------||--------------------------------9--9-9-9-9-9-9-9-9-9-9-9-9-9-9-||-2--2-2-2-2-2-2-2-2-2-2-2-2-2-2-9--9-9-9-9-9-9-9-9-9-9-9-9-9-9-||-2--2-2-2-2-2-2-2-2-2-2-2-2-2-2-7--7-7-7-7-7-7-7-7-7-7-7-7-7-7-||-0--0-0-0-0-0-0-0-0-0-0-0-0-0-0--------------------------------| [pm------------------------]
Solo:
|---------------------------------------------||---------------------------------------------||---11b-----11b-8-9-8-----9-8------8-11-8-----||-9-----9-8-----------9-------9-11--------11--||-----------------------9---------------------||---------------------------------------------|
|----------------------------------------------------||----------------------------------------------------||----17b-------17b----15-14-------15-14----14-15-17b-||-15-----15-14-----15-------15----------15-----------||------------------------------14--------------------||----------------------------------------------------|
Outro:
|-------------------------------------||-------------------------------------||-------------------------------------||-9-9--9-9---1-1--1-1---2-2--2-2-2--4-||-9-9--9-9---1-1--1-1---2-2--2-2-2--4-||-7-7--7-7--------------0-0--0-0-0--2-|
Song Order: Intro Chorus x 2 Fill 1 Intro Chorus x 2 Fill 2 Interlude Solo (Chorus x2) Chorus x 2 Outro
Tap to rate this tab
 
# A B C D E F G H I J K L M N O P Q R S T U V W X Y Z