Minus The Bear - Women We Havent Met Yet tab

the two guitars are in different tunings



Left Guitar  DADGBE
                                      
E||-------|-------|-------|-------|--------------------------|B||-------|-------|-------|-------|--5--5--5--5--5--5--5--5--|G||-------|-------|-------|-------|--------------------------|D||-------|-------|-------|-------|--7--7--7--7--7--7--7--7--|A||-------|-------|-------|-------|--------------------------|D||-------|-------|-------|-------|--------------------------|
--------------------------|---------------------------------|--5--5--5--5--5--5--5--5--|--5---8---8---8---8---8---8---8--|--------------------------|---------------------------------|--7--7--7--7--7--7--7--7--|--7--10--10--10--10--10--10--10--|--------------------------|---------------------------------|--------------------------|---------------------------------|
----------------------------------|--------------------------|---8---8---8---8---8---8---8---8--|--5--5--5--5--5--5--5--5--|----------------------------------|--------------------------|--10--10--10--10--10--10--10--10--|--7--7--7--7--7--7--7--7--|----------------------------------|--------------------------|----------------------------------|--------------------------|
--------------------------|---------------------------------|--5--5--5--5--5--5--5--5--|--5---8---8---8---8---8---8---8--|--------------------------|---------------------------------|--7--7--7--7--7--7--7--7--|--7--10--10--10--10--10--10--10--|--------------------------|---------------------------------|--------------------------|---------------------------------|
----------------------------------|--------------------------|---8---8---8---8---8---8---8---8--|--5--5--5--5--5--5--5--5--|----------------------------------|--------------------------|--10--10--10--10--10--10--10--10--|--7--7--7--7--7--7--7--7--|----------------------------------|--------------------------|----------------------------------|--------------------------|
--------------------------|---------------------------------|--5--5--5--5--5--5--5--5--|--5---8---8---8---8---8---8---8--|--------------------------|---------------------------------|--7--7--7--7--7--7--7--7--|--7--10--10--10--10--10--10--10--|--------------------------|---------------------------------|--------------------------|---------------------------------|
----------------------------------|--------------------------|---8---8---8---8---8---8---8---8--|--5--5--5--5--5--5--5--5--|----------------------------------|--------------------------|--10--10--10--10--10--10--10--10--|--7--7--7--7--7--7--7--7--|----------------------------------|--------------------------|----------------------------------|--------------------------|
--------------------------|---------------------------------|--5--5--5--5--5--5--5--5--|--5---8---8---8---8---8---8---8--|--------------------------|---------------------------------|--7--7--7--7--7--7--7--7--|--7--10--10--10--10--10--10--10--|--------------------------|---------------------------------|--------------------------|---------------------------------|
-------------------|------------------------|------------------------|-------------------|------------------------|------------------------|-------------------|--2-p0-------2-p0-------|--2-p0-------2-p0-------|-------------------|------------------------|------------------------|-------------------|------------------------|------------------------|-------------------|------------------------|------------------------|
-------------------------|-------------------------|-----------------------|-5--5--5--5--5--5--5--5--|-5--5--5--5--5--5--5-----|-----------------------|-------------------------|-------------------------|-2-p0-------2-p0-------|-7--7--7--7--7--7--7--7--|-7--7--7--7--7--7--7-----|-----------------------|-------------------------|-------------------------|-----------------------|-------------------------|-------------------------|-----------------------|
-----------------------|-------------------------|-------------------------|-----------------------|-5--5--5--5--5--5--5--5--|-5--5--5--5--5--5--5-----|-2-p0-------2-p0-------|-------------------------|-------------------------|-----------------------|-7--7--7--7--7--7--7--7--|-7--7--7--7--7--7--7-----|-----------------------|-------------------------|-------------------------|-----------------------|-------------------------|-------------------------|
-----------------------|-----------------------|-------------------------|-----------------------|-----------------------|-5--5--5--5--5--5--5--5--|-2-p0-------2-p0-------|-2-p0-------2-p0-------|-------------------------|-----------------------|-----------------------|-7--7--7--7--7--7--7--7--|-----------------------|-----------------------|-------------------------|-----------------------|-----------------------|-------------------------|
-------------------------|-----------------------|-----------------------|-5--5--5--5--5--5--5-----|-----------------------|-----------------------|-------------------------|-2-p0-------2-p0-------|-2-p0-------2-p0-------|-7--7--7--7--7--7--7-----|-----------------------|-----------------------|-------------------------|-----------------------|-----------------------|-------------------------|-----------------------|-----------------------|
--------------------------|-------------------|-------------------------|--5--5--5--5--5--5--5--5--|-------------------|-------------------------|--------------------------|-------------------|--7--7--7--5----5--7--7--|--7--7--7--7--7--7--7--7--|-------------------|-------------------------|--------------------------|-------------------|--5--5--5--3----3--5--5--|--------------------------|-------------------|-------------------------|
------------------------|------------------------|------------------------|------------------------|------------------------|------------------------|-7--5----5--7--7--5--5--|-2--2--2--5----5--2--2--|-2--5----5--2--2--5--5--|------------------------|------------------------|------------------------|-5--3----3--5--5--3--3--|-0--0--0--3----3--0--0--|-0--3----3--0--0--3--3--|------------------------|------------------------|------------------------|
------------------------|------------------------|------------------------|------------------------|------------------------|------------------------|-7--7--7--5----5--7--7--|-7--5----5--7--7--5--5--|-2--2--2--5----5--2--2--|------------------------|------------------------|------------------------|-5--5--5--3----3--5--5--|-5--3----3--5--5--3--3--|-0--0--0--3----3--0--0--|------------------------|------------------------|------------------------|
------------------------------|--------------------------|-------------8-/-10-\-8-/-10--|--8-/-10-\-8--------------|--2--5----5-------------------|--------------5------7----|------------------------------|--------------------------|--0--3----3-------------------|--------------------------|------------------------------|--------------------------|
----------------------|---------------------|-----------------------------|----------------------|---------------------|------------8-/-10-\-8-/-10--|----------------------|--5------7-----------|-----------------------------|-----5------7---------|----------------5----|-----7-----------------------|----------------------|---------------------|-----------------------------|----------------------|---------------------|-----------------------------|
--------------------------|----------------------|----------------------|--8-/-10-\-8--------------|----------------------|----------------------|--------------5------7----|----------------------|--7------7----9--9----|--------------------------|-----5------7---------|--5------5----7--7----|--------------------------|----------------------|----------------------|--------------------------|----------------------|--5------5----7--7----|
tapping -------------------|------------------------------|-------------------|--13-----17--0--13-----13-----|-------------------|------------------------------|-------------------|------------------------------|-------------------|------3--------------------3--|-------------------|------------------------------|
------------------------------|--------------------------|--17--0--13-----13-----17--0--|--5--5--5--5--5--5--5--5--|------------------------------|--------------------------|------------------------------|--7--7--7--7--7--7--7--7--|--------------------3---------|--------------------------|------------------------------|--------------------------|
--------------------------|--------------------------------|--5--5--5--5--5--5--5--5--|---8---8------8---8---8------8--|--------------------------|--------------------------------|--7--7--7--7--7--7--7--7--|--10--10-----10--10--10-----10--|--------------------------|--------------------------------|--------------------------|--------------------------------|
------------------------------|--------------------------|---8---8------8---8---8-------|--5--5--5--5--5--5--5--5--|------------------------------|--------------------------|--10--10-----10--10--10-------|--7--7--7--7--7--7--7--7--|------------------------------|--------------------------|------------------------------|--------------------------|
--------------------------|--------------------------------|--5--5--5--5--5--5--5--5--|---8---8------8---8---8------8--|--------------------------|--------------------------------|--7--7--7--7--7--7--7--7--|--10--10-----10--10--10-----10--|--------------------------|--------------------------------|--------------------------|--------------------------------|
------------------------------|--------------------------|---8---8------8---8---8-------|--5--5--5--5--5--5--5--5--|------------------------------|--------------------------|--10--10-----10--10--10-------|--7--7--7--7--7--7--7--7--|------------------------------|--------------------------|------------------------------|--------------------------|
--------------------------|--------------------------------|--5--5--5--5--5--5--5--5--|---8---8------8---8---8------8--|--------------------------|--------------------------------|--7--7--7--7--7--7--7--7--|--10--10-----10--10--10-----10--|--------------------------|--------------------------------|--------------------------|--------------------------------|
-----------------------------|-------------------------|------------------|--8---8------8---8---8-------|-5--5--5--5--5--5--5--5--|------------------|-----------------------------|-------------------------|------------------|-10--10-----10--10--10-------|-7--7--7--7--7--7--7--7--|------------------|-----------------------------|-------------------------|------------------|-----------------------------|-------------------------|------------------|
------------------------|------------------------|------------------------|------------------------|------------------------|------------------------|-7--7--7--5----5--7--7--|-7--5----5--7--7--5--5--|-2--2--2--5----5--2--2--|------------------------|------------------------|------------------------|-5--5--5--3----3--5--5--|-5--3----3--5--5--3--3--|-0--0--0--3----3--0--0--|------------------------|------------------------|------------------------|
------------------------|------------------------|------------------------|------------------------|------------------------|------------------------|-2--5----5--2--2--5--5--|-7--7--7--5----5--7--7--|-7--5----5--7--7--5--5--|------------------------|------------------------|------------------------|-0--3----3--0--0--3--3--|-5--5--5--3----3--5--5--|-5--3----3--5--5--3--3--|------------------------|------------------------|------------------------|
-------------------------|------------------------------|-------------------------|-------------8-/-10-\-8-/-10--|--2--2--2--5----5--2--2--|--2--5----5-------------------|-------------------------|------------------------------|--0--0--0--3----3--0--0--|--0--3----3-------------------|-------------------------|------------------------------|
--------------------------|----------------------|---------------------|--8-/-10-\-8--------------|----------------------|---------------------|--------------5------7----|----------------------|--5------7-----------|--------------------------|-----5------7---------|----------------5----|--------------------------|----------------------|---------------------|--------------------------|----------------------|---------------------|
-------------------------|--------------------------|----------------------|--------8-/-10-\-8-/-10--|--8-/-10-\-8--------------|----------------------|-------------------------|--------------5------7----|----------------------|-7-----------------------|--------------------------|-----5------7---------|-------------------------|--------------------------|----------------------|-------------------------|--------------------------|----------------------|
----------------------|-------------------|--------------------------|----------------------|-------------------|--5--5--5--5--5--5--5--5--|--7------7----9--9----|-------------------|--------------------------|--5------5----7--7----|-------------------|--7--7--7--7--7--7--7--7--|----------------------|-------------------|--------------------------|--5------5----7--7----|-------------------|--------------------------|
--------------------------|---------------------------------|--5--5--5--5--5--5--5--5--|--5---8---8---8---8---8---8---8--|--------------------------|---------------------------------|--7--7--7--7--7--7--7--7--|--7--10--10--10--10--10--10--10--|--------------------------|---------------------------------|--------------------------|---------------------------------|
----------------------------------|-----------------------|---8---8---8---8---8---8---8---8--|--5--------------5-----|----------------------------------|-----------------------|--10--10--10--10--10--10--10--10--|--7--------------7-----|----------------------------------|-----------------------|----------------------------------|-----------------------|
---------------------|-----------------------|-------------------------|-----------5---------|--------8--------------|---8---------------8-----|---------------------|-----------------------|-------------------------|-----------7---------|-------10--------------|--10--------------10-----|---------------------|-----------------------|-------------------------|---------------------|-----------------------|-------------------------|
--------------------------|--------------------------|--5--5--5--5--5--5--5--5--|--5--5--5--5--5--5--5--5--|--------------------------|--------------------------|--7--7--7--7--7--7--7--7--|--7--7--7--7--7--7--7--7--|--------------------------|--------------------------|--------------------------|--------------------------|
---------------------------------|----------------------------------|--5---8---8---8---8---8---8---8--|---8---8---8---8---8---8---8---8--|---------------------------------|----------------------------------|--7--10--10--10--10--10--10--10--|--10--10--10--10--10--10--10--10--|---------------------------------|----------------------------------|---------------------------------|----------------------------------|
--------------------------|--------------------------|--5--5--5--5--5--5--5--5--|--5--5--5--5--5--5--5--5--|--------------------------|--------------------------|--7--7--7--7--7--7--7--7--|--7--7--7--7--7--7--7--7--|--------------------------|--------------------------|--------------------------|--------------------------|
---------------------------------|---------------------------|--5---8---8---8---8---8---8---8--|---8---8---8---------------|---------------------------------|---------------------------|--7--10--10--10--10--10--10--10--|--10--10--10---------------|---------------------------------|---------------------------|---------------------------------|---------------------------|
--------------12--------------12--|--------------15------------------|--10--10--10------10--10--10------|--10--10--10------------------10--|----------------------------------|------------------14-\12--12------|----------------------------------|----------------------------------|----------------------------------|----------------------------------|----------------------------------|----------------------------------|
--------------12------10------12--|-----10------15------------------|--10--10--10------10------10------|---------10------------------10--|----------------------------------|-----------------14-\12--12------|----------------------------------|---------------------------------|----------------------------------|---------------------------------|----------------------------------|---------------------------------|
--------------12--------------12--|--------------15------------------|--10--10--10------10--10--10------|--10--10--10------------------10--|----------------------------------|------------------14-\12--12------|----------------------------------|----------------------------------|----------------------------------|----------------------------------|----------------------------------|----------------------------------|
------10------12-----10------12--|-----10------15------------------|--10------10-------------10------|---------10------------------10--|---------------------------------|-----------------14-\12--12------|---------------------------------|---------------------------------|---------------------------------|---------------------------------|---------------------------------|---------------------------------|
------10------12-----10------12--|-----10------15------------------|--10------10-------------10------|---------10------------------10--|---------------------------------|-----------------14-\12--12------|---------------------------------|---------------------------------|---------------------------------|---------------------------------|---------------------------------|---------------------------------|
------10------12-----10------12--|-----10------15------------------|--10------10-------------10------|---------10------------------10--|---------------------------------|-----------------14-\12--12------|---------------------------------|---------------------------------|---------------------------------|---------------------------------|---------------------------------|---------------------------------|
------10------12-----10------12--|-----10------15------------------|--10------10-------------10------|---------10------------------10--|---------------------------------|-----------------14-\12--12------|---------------------------------|---------------------------------|---------------------------------|---------------------------------|---------------------------------|---------------------------------|
------10------12-----10------12--|-----10------15-----------|--10------10-------------10------|---------10---------------|---------------------------------|--------------------------|---------------------------------|--------------------------|---------------------------------|--------------------------|---------------------------------|--------------------------|
------------------------|-------------------------|------------------------|-------------------------|-----7-p5-----5---------|-------------------------|--7--------7-------7----|--------5-------5-h7-----|------------------------|--5-h7-----7-------------|------------------------|-------------------------|
---------------------------|----------------------|-----------------------|---------------------------|----------------------|-----------------------|------12------12----9------|----7-p5-----5--------|----7-p5-----5---------|-/12------12-----------10--|-7--------7-------7---|-7--------7-------7----|---------------------------|----------------------|-----------------------|---------------------------|----------------------|-----------------------|
--------------------0----|---------------------|-------------------|-------------------------|---------------------|-------------------|--------------------5----|---------------5-h7--|-------------------|-----------5-h7-----7----|---------------7-----|-------------------|--5-h7-------------------|---------------------|-------------------|-------------------------|---------------------|-------------------|
------------------------|-------------------------|------------------------|-------------------------|-----7-p5-----5---------|-------------------------|--7--------7-------7----|--------5-------5-h7-----|------------------------|--5-h7-----7-------------|------------------------|-------------------------|
--------------------------|-----------------------|-----------------------|--------------------------|-----------------------|-----------------------|------12------12----9-----|-----7-p5-----5--------|-----7-p5-----5--------|-/12------12-----------10-|--7--------7-------7---|--7--------7-------7---|--------------------------|-----------------------|-----------------------|--------------------------|-----------------------|-----------------------|
----------------------|---------------------------|----------------------|----------------------|---------------------------|----------------------|----------------------|------12------12----9------|-----7-p5-----5-------|----------------5-h7--|-/12------12-----------10--|--7--------7-------7--|--5-h7-----7----------|---------------------------|----------------------|----------------------|---------------------------|----------------------|
------------------------|-------------------------|------------------------|-------------------------|-----7-p5-----5---------|-------------------------|--7--------7-------7----|--------5-------5-h7-----|------------------------|--5-h7-----7-------------|------------------------|-------------------------|
---------------------------|----------------------|----------------------|---------------------------|----------------------|----------------------|------12------12----9------|-----7-p5-----5-------|-----7-p5-----5-------|-/12------12-----------10--|--7--------7-------7--|--7--------7-------7--|---------------------------|----------------------|----------------------|---------------------------|----------------------|----------------------|
------------------------|------------------------------|------------------------|------------------------------|------------------------|------12------12----9------9--|--------5-------5-h7----|-/12------12-----------10-----|--5-h7-----7------------|------------------------------|------------------------|------------------------------|
-------------------------|------10------12----10------12--|-------------------------|--10------10------------10------|-----5-----5-----7-------|--------------------------------|--------7-----7----------|--------------------------------|-------------------------|--------------------------------|-------------------------|--------------------------------|
--12--10------15------------------|------10------12----10------12--|----------10------------------10--|--10------10------------10------|------------------14-\12--12------|--------------------------------|----------------------------------|--------------------------------|----------------------------------|--------------------------------|----------------------------------|--------------------------------|
--12--10------15------------------|------10------12----10------12--|----------10------------------10--|--10------10------------10------|------------------14-\12--12------|--------------------------------|----------------------------------|--------------------------------|----------------------------------|--------------------------------|----------------------------------|--------------------------------|
--12--10------15------------------|------10------12----10------12--|----------10------------------10--|--10------10------------10------|------------------14-\12--12------|--------------------------------|----------------------------------|--------------------------------|----------------------------------|--------------------------------|----------------------------------|--------------------------------|
--12--10------15-----------|-----------------------|-----------------------|----------10---------------|-----------------------|-----------------------|---------------------------|---9---9---------------|---9---9---------------|---------------------------|--10--10---------------|--10--10---------------|---------------------------|-----------------------|-----------------------|---------------------------|-----------------------|-----------------------|
-----------------------|-----------------------|-----------------------|-----------------------|-----------------------|-----------------------|---9---9---------------|---9---9---------------|---9---9---------------|--10--10---------------|--10--10---------------|--10--10---------------|-----------------------|-----------------------|-----------------------|-----------------------|-----------------------|-----------------------|
-----------------------|-----------------------|-----------------------||-----------------------|-----------------------|-----------------------||---9---9---------------|---9---9---------------|---9---9---------------||--10--10---------------|--10--10---------------|--10--10---------------||-----------------------|-----------------------|-----------------------||-----------------------|-----------------------|-----------------------||
Right Guitar DADABE
E||-------------------------------|----------------------------|B||-------------------------------|----------------------------|A||-----------------3-p0----------|---------3-p0---------3-p0--|D||-------------------------------|----------------------------|A||--5s--3s--5s--3--------5s--3s--|--5s--3--------5s--3--------|D||-------------------------------|----------------------------|
----------------------------------|------------------------------|----------------------------------|------------------------------|----------------------0-----------|-------------0-------------0--|-------------------7--------------|----------7-------------7-----|----------------------------------|------------------------------|--10s--7s--10s--7--------10s--7s--|--10s--7--------10s--7--------|
-------------------------------|----------------------------|-------------------------------|----------------------------|-----------------3-p0----------|---------3-p0---------3-p0--|-------------------------------|----------------------------|--5s--3s--5s--3--------5s--3s--|--5s--3--------5s--3--------|-------------------------------|----------------------------|
----------------------------------|------------------------------|----------------------------------|------------------------------|----------------------0-----------|-------------0-------------0--|-------------------7--------------|----------7-------------7-----|----------------------------------|------------------------------|--10s--7s--10s--7--------10s--7s--|--10s--7--------10s--7--------|
-------------------------------|----------------------------|-------------------------------|----------------------------|-----------------3-p0----------|---------3-p0---------3-p0--|-------------------------------|----------------------------|--5s--3s--5s--3--------5s--3s--|--5s--3--------5s--3--------|-------------------------------|----------------------------|
----------------------------------|------------------------------|----------------------------------|------------------------------|----------------------0-----------|-------------0-------------0--|-------------------7--------------|----------7-------------7-----|----------------------------------|------------------------------|--10s--7s--10s--7--------10s--7s--|--10s--7--------10s--7--------|
-------------------------------|----------------------------|-------------------------------|----------------------------|-----------------3-p0----------|---------3-p0---------3-p0--|-------------------------------|----------------------------|--5s--3s--5s--3--------5s--3s--|--5s--3--------5s--3--------|-------------------------------|----------------------------|
----------------------------------|------------------------------|----------------------------------|------------------------------|----------------------0-----------|-------------0-------------0--|-------------------7--------------|----------7-------------7-----|----------------------------------|------------------------------|--10s--7s--10s--7--------10s--7s--|--10s--7--------10s--7--------|
-------------------------------|----------------------------|-------------------------------|----------------------------|-----------------3-p0----------|---------3-p0---------3-p0--|-------------------------------|----------------------------|--5s--3s--5s--3--------5s--3s--|--5s--3--------5s--3--------|-------------------------------|----------------------------|
--------------------------------|-------------------|--------------------------------|-------------------|----------------------0------0--|-------------------|-------------------7------------|-------------------|--------------------------------|-------------------|--10s--7s--10s--7--------10-----|-------------------|
tapping ------------------------------|------------------------------|--13-----17--0--13-----13-----|--17--0--13-----13-----17--0--|---------------------------3--|--------------------3---------|------------------------------|------------------------------|------3-----------------------|------------------------------|------------------------------|------------------------------|
---------12-----5------------|--12-----5------------12--0--|--10---------8--------10-----|------8--------10------------|------3-------------------3--|-------------------3---------|-----------------------------|-----------------------------|-----------------------------|-----------------------------|-----------------------------|-----------------------------|
------------------------------|------------------------------|--13-----17--0--13-----13-----|--17--0--13-----13-----17--0--|---------------------------3--|--------------------3---------|------------------------------|------------------------------|------3-----------------------|------------------------------|------------------------------|------------------------------|
---------12-----5------------|--12------12-------15-------17--0--|--10---------8--------10-----|----------------1--------1---------|------3-------------------3--|------10-----10-------12-----------|-----------------------------|-----------------------------------|-----------------------------|-----------------------------------|-----------------------------|-----------------------------------|
------------------------------|------------------------------|--13-----17--0--13-----13-----|--17--0--13-----13-----17--0--|---------------------------3--|--------------------3---------|------------------------------|------------------------------|------3-----------------------|------------------------------|------------------------------|------------------------------|
---------12-----5------------|--12-----5------------12--0--|--10---------8--------10-----|------8--------10------------|------3-------------------3--|-------------------3---------|-----------------------------|-----------------------------|-----------------------------|-----------------------------|-----------------------------|-----------------------------|
------------------------------|------------------------------|--13-----17--0--13-----13-----|--17--0--13-----13-----17--0--|---------------------------3--|--------------------3---------|------------------------------|------------------------------|------3-----------------------|------------------------------|------------------------------|------------------------------|
--------12-------------12------|-----------------|-------------------------|-10-------------10-------------|-----------------|-------------------------|-----3------10------3------10--|-----------------|-----------3----3--------|-------------------------------|-----------------|--3--3--3----------3--3--|-------------------------------|-----------------|-------------------------|-------------------------------|-----------------|--3--3--3----------3--3--|
------------------------|------------------------|------------------------|------------------------|------------------------|------------------------|----3----3--3-----3--3--|-2--2--2----------0--0--|-0--0----0--0--0--0--0--|-3-------------3--------|----------5----5--------|------------------------|------------------------|-0--0--0--0----0--0--0--|-0--0----0--0--0--0--0--|-3-------------3--------|------------------------|------------------------|
------------------------|------------------------|------------------------|------------------------|------------------------|------------------------|----------3----3--------|----3----3--3-----3--3--|----------3----3--------|-3--3--3----------3--3--|-3-------------3--------|----------5----5--------|------------------------|------------------------|-0--0--0----------0--0--|-3--3--3----------3--3--|-3-------------3--------|------------------------|
-----------------------|---8---8---8---8---8---8---8---8--|-----------------------|----------------------------------|-----3----3------------|----------------------------------|-----5----5------------|--10--10--10--10--10--10--10--10--|--0--------------------|---8---8---8---8---8---8---8---8--|-------------0----0----|----------------------------------|
---8---8---8---8---8---8---8--5--|--5--5--5--5--5--5--5--5--|------------------------------5--|--5--5--5--5--5--5--5--5--|---------------------------------|--------------------------|--10--10--10--10--10--10--10--7--|--7--7--7--7--7--7--7--7--|---8---8---8---8---8---8---8--5--|--5--5--5--5--5--5--5--5--|---------------------------------|--------------------------|
--5--5--5--5--5--5--5---8--|---8---8---8---8---8---8---8---8--|--5--5--5--5--5--5--5------|----------------------------------|---------------------------|----------------------------------|--7--7--7--7--7--7--7--10--|--10--10--10--10--10--10--10--10--|--5--5--5--5--5--5--5---8--|---8---8---8---8---8---8---8---8--|---------------------------|----------------------------------|
---8---8---8---8---8---8---8---8--|----------------------|---------------|----------------------------------|----------------------|---------------|----------------------------------|--5------5----7--7----|---------------|--10--10--10--10--10--10--10--10--|--5------5----7--7----|---------------|---8---8---8---8---8---8---8---8--|----------------------|---------------|----------------------------------|--5------5----7--7----|---------------|
tapping -------------------|-------------------|---------12-----5------------|-------------------|-------------------|--10---------8--------10-----|-------------------|-------------------|------3-------------------3--|-------------------|-------------------|-----------------------------|-------------------|-------------------|-----------------------------|-------------------|-------------------|-----------------------------|
--12-----5------------12--0--|------------------------------|------8--------10------------|--13-----17--0--13-----13-----|-------------------3---------|---------------------------3--|-----------------------------|------------------------------|-----------------------------|------3-----------------------|-----------------------------|------------------------------|
------------------------------|---------12-----5------------|--17--0--13-----13-----17--0--|--10---------8--------10-----|--------------------3---------|------3-------------------3--|------------------------------|-----------------------------|------------------------------|-----------------------------|------------------------------|-----------------------------|
--12------12-------15-------17--0--|------------------------------|----------------1--------1---------|--13-----17--0--13-----13-----|------10-----10-------12-----------|---------------------------3--|-----------------------------------|------------------------------|-----------------------------------|------3-----------------------|-----------------------------------|------------------------------|
------------------------------|---------12-----5------------|--17--0--13-----13-----17--0--|--10---------8--------10-----|--------------------3---------|------3-------------------3--|------------------------------|-----------------------------|------------------------------|-----------------------------|------------------------------|-----------------------------|
--12-----5------------12--0--|------------------------------|------8--------10------------|--13-----17--0--13-----13-----|-------------------3---------|---------------------------3--|-----------------------------|------------------------------|-----------------------------|------3-----------------------|-----------------------------|------------------------------|
------------------------------|---------12-------------12------|--17--0--13-----13-----17--0--|--10-------------10-------------|--------------------3---------|------3------10------3------10--|------------------------------|--------------------------------|------------------------------|--------------------------------|------------------------------|--------------------------------|
---------------|-------------------------|-------------------------|---------------|-------------------------|-------------------------|---------------|-----------3----3--------|-----3----3--3-----3--3--|---------------|--3--3--3----------3--3--|--3-------------3--------|---------------|-------------------------|-------------------------|---------------|--3--3--3----------3--3--|--3-------------3--------|
------------------------|------------------------|------------------------|------------------------|------------------------|------------------------|-2--2--2----------0--0--|-0--0----0--0--0--0--0--|----------3----3--------|----------5----5--------|------------------------|-3--3--3----------3--3--|-0--0--0--0----0--0--0--|-0--0----0--0--0--0--0--|------------------------|------------------------|------------------------|-3--3--3----------3--3--|
------------------------|------------------------|----------------------|------------------------|------------------------|----------------------|----3----3--3-----3--3--|----------3----3--------|----3----3------------|-3-------------3--------|----------5----5--------|----5----5------------|------------------------|-0--0--0----------0--0--|-0--------------------|-3-------------3--------|------------------------|------------0----0----|
---8---8---8---8---8---8---8---8--|---8---8---8---8---8---8---8--5--|----------------------------------|------------------------------5--|----------------------------------|---------------------------------|--10--10--10--10--10--10--10--10--|--10--10--10--10--10--10--10--7--|---8---8---8---8---8---8---8---8--|---8---8---8---8---8---8---8--5--|----------------------------------|---------------------------------|
--5--5--5--5--5--5--5--5--|--5--5--5--5--5--5--5---8--|--5--5--5--5--5--5--5--5--|--5--5--5--5--5--5--5------|--------------------------|---------------------------|--7--7--7--7--7--7--7--7--|--7--7--7--7--7--7--7--10--|--5--5--5--5--5--5--5--5--|--5--5--5--5--5--5--5---8--|--------------------------|---------------------------|
---8---8---8---8---8---8---8---8--|---8---8---8---8---8---8---8---8--|----------------------------------|----------------------------------|----------------------------------|----------------------------------|--10--10--10--10--10--10--10--10--|--10--10--10--10--10--10--10--10--|---8---8---8---8---8---8---8---8--|---8---8---8---8---8---8---8---8--|----------------------------------|----------------------------------|
----------------------|-------------------|-------------------------------|----------------------|-------------------|-------------------------------|--5------5----7--7----|-------------------|-----------------3-p0----------|--5------5----7--7----|-------------------|-------------------------------|----------------------|-------------------|--5s--3s--5s--3--------5s--3s--|--5------5----7--7----|-------------------|-------------------------------|
----------------------------|----------------------------------|----------------------------|----------------------------------|---------3-p0---------3-p0--|----------------------------------|----------------------------|-------------------7--------------|--5s--3--------5s--3--------|----------------------------------|----------------------------|--10s--7s--10s--7--------10s--7s--|
------------------------------|----------------------|------------------|------------------------------|--10--------------10--|-----------10-----|------------------------------|----------------------|------------------|----------7-------------7-----|---7---------------7--|------------7-----|------------------------------|----------------------|------------------|--10s--7--------10s--7--------|----------------------|------------------|
-----------------------|-------------------------|-------10--------------|--10--------------10-----|-----------------------|-------------------------|--------7--------------|---7---------------7-----|-----------------------|-------------------------|-----------------------|-------------------------|
-------------------------------|----------------------------|-------------------------------|----------------------------|-----------------3-p0----------|---------3-p0---------3-p0--|-------------------------------|----------------------------|--5s--3s--5s--3--------5s--3s--|--5s--3--------5s--3--------|-------------------------------|----------------------------|
----------------------------------|------------------------------|----------------------------------|------------------------------|----------------------------------|------------------------------|-------------------7--------------|----------7-------------7-----|----------------------------------|------------------------------|--10s--7s--10s--7--------10s--7s--|--10s--7--------10s--7--------|
-------------------------------|----------------------------|-------------------------------|----------------------------|-----------------3-p0----------|---------3-p0---------3-p0--|-------------------------------|----------------------------|--5s--3s--5s--3--------5s--3s--|--5s--3--------5s--3--------|-------------------------------|----------------------------|
--------------------------------|-------------------|--------------------------------|-------------------|-----------------------------0--|-------------------|-------------------7------------|-------------------|--------------------------------|-------------------|--10s--7s--10s--7--------10-----|-------------------|
--------------------------------|--------------------------------|--10--12--13--0--15--0--13------|--10--12--13--0--15--0--13------|----------------------------12--|----------------------------12--|--------------------------------|--------------------------------|--------------------------------|--------------------------------|--------------------------------|--------------------------------|
--------------------------------|--------------------------------|--10--12--13--0--15--0--13------|--10--12--13--0--15--0--13------|----------------------------12--|----------------------------12--|--------------------------------|--------------------------------|--------------------------------|--------------------------------|--------------------------------|--------------------------------|
t t t t -----------------22-----20------|-----------------22-----20------|--10--12--13--0--15--0----------|--10--12--13--0--15--0----------|----------------------------12--|----------------------------12--|--------------------------------|--------------------------------|--------------------------------|--------------------------------|--------------------------------|--------------------------------|
t t t t -----------------19-----20------|-----------------22-----20------|--10--12--13--0------0----------|--10--12--13--0--15--0----------|----------------------------12--|----------------------------12--|--------------------------------|--------------------------------|--------------------------------|--------------------------------|--------------------------------|--------------------------------|
t t t t -----------------19-----20------|-----------------22-----20------|--10--12--13--0------0----------|--10--12--13--0--15--0----------|----------------------------12--|----------------------------12--|--------------------------------|--------------------------------|--------------------------------|--------------------------------|--------------------------------|--------------------------------|
t t t t -----------------22-----20------|-----------------22-----20------|--10--12--13--0--15--0----------|--10--12--13--0--15--0----------|----------------------------12--|----------------------------12--|--------------------------------|--------------------------------|--------------------------------|--------------------------------|--------------------------------|--------------------------------|
t t t t -----------------22-----20------|-----------------22-----20------|--10--12--13--0--15--0----------|--10--12--13--0--15--0----------|----------------------------12--|----------------------------12--|--------------------------------|--------------------------------|--------------------------------|--------------------------------|--------------------------------|--------------------------------|
t t -----------------22-----20------|--------------------------|--10--12--13--0--15--0----------|--10--12--13--0-----------|----------------------------12--|--------------------------|--------------------------------|--------------------------|--------------------------------|--------------------------|--------------------------------|--------------------------|
tapping--20-----20-----20-----20-----|--19-----19-----19-----19-----|------------------------------|------------------------------|------2------2------2------2--|------2------2------2------2--|------------------------------|------------------------------|------------------------------|------------------------------|------------------------------|------------------------------|
--15-----15-----15-----15-----|--17-----17-----17-----17-----|------------------------------|------------------------------|------2------2------2------2--|------2------2------2------2--|------------------------------|------------------------------|------------------------------|------------------------------|------------------------------|------------------------------|
--20-----20-----20-----20-----|--19-----19-----19-----19-----|------------------------------|------------------------------|------2------2------2------2--|------2------2------2------2--|------------------------------|------------------------------|------------------------------|------------------------------|------------------------------|------------------------------|
--15-----15-----15-----15-----|--17-----17-----17-----17-----|------------------------------|------------------------------|------2------2------2------2--|------2------2------2------2--|------------------------------|------------------------------|------------------------------|------------------------------|------------------------------|------------------------------|
--20-----20-----20-----20-----|--19-----19-----19-----19-----|------------------------------|------------------------------|------2------2------2------2--|------2------2------2------2--|------------------------------|------------------------------|------------------------------|------------------------------|------------------------------|------------------------------|
--15-----15-----15-----15-----|--17-----17-----17-----17-----|------------------------------|------------------------------|------2------2------2------2--|------2------2------2------2--|------------------------------|------------------------------|------------------------------|------------------------------|------------------------------|------------------------------|
--20-----20-----20-----20-----|--19-----19-----19-----19-----|------------------------------|------------------------------|------2------2------2------2--|------2------2------2------2--|------------------------------|------------------------------|------------------------------|------------------------------|------------------------------|------------------------------|
--15-----15-----15-----15-----|--17-----17-----17-----17-----|------------------------------|------------------------------|------2------2------2------2--|------2------2------2------2--|------------------------------|------------------------------|------------------------------|------------------------------|------------------------------|------------------------------|
--20-----20-----20-----20-----|--19-----19-----19-----19-----|------------------------------|------------------------------|------2------2------2------2--|------2------2------2------2--|------------------------------|------------------------------|------------------------------|------------------------------|------------------------------|------------------------------|
--15-----15-----15-----15-----|--17-----17-----17-----17-----|------------------------------|------------------------------|------2------2------2------2--|------2------2------2------2--|------------------------------|------------------------------|------------------------------|------------------------------|------------------------------|------------------------------|
--20-----20-----20-----20-----|--19-----19-----19-----19-----|------------------------------|------------------------------|------2------2------2------2--|------2------2------2------2--|------------------------------|------------------------------|------------------------------|------------------------------|------------------------------|------------------------------|
--15-----15-----15-----15-----|--17------17------17------17------|------------------------------|----------------------------------|------2------2------2------2--|------12------12------12------12--|------------------------------|----------------------------------|------------------------------|----------------------------------|------------------------------|----------------------------------|
t t t t -----------------22-----20------|----------------22-----20------|--10--12--13--0--15--0----------|-----12--13--0--15--0----------|----------------------------12--|---------------------------12--|--------------------------------|-------------------------------|--------------------------------|-------------------------------|--------------------------------|-------------------------------|
t t t t -----------------22-----20------|----------------22-----20------|--10--12--13--0--15--0----------|-----12--13--0--15--0----------|----------------------------12--|---------------------------12--|--------------------------------|-------------------------------|--------------------------------|-------------------------------|--------------------------------|-------------------------------|
t t t t -----------------22-----20------|----------------22-----20------|--10--12--13--0--15--0----------|-----12--13--0--15--0----------|----------------------------12--|---------------------------12--|--------------------------------|-------------------------------|--------------------------------|-------------------------------|--------------------------------|-------------------------------|
t t -----------------22-----20------|-------------------------|--10--12--13--0--15--0----------|-----12--13--0-----------|----------------------------12--|-------------------------|--------------------------------|-------------------------|--------------------------------|-------------------------|--------------------------------|-------------------------|
-----------------------|-----------------------|-----------------------|-----------------------|-----------------------|-----------------------|--12--12---------------|--12--12---------------|--12--12---------------|-----------------------|-----------------------|-----------------------|--12--12---------------|--12--12---------------|--12--12---------------|-----------------------|-----------------------|-----------------------|
-----------------------|-----------------------|-----------------------|-----------------------|-----------------------|-----------------------|--12--12---------------|--12--12---------------|--12--12---------------|-----------------------|-----------------------|-----------------------|--12--12---------------|--12--12---------------|--12--12---------------|-----------------------|-----------------------|-----------------------|
-----------------------|---------------------||-----------------------|---------------------||--12--12---------------|--3--3---------------||-----------------------|---------------------||--12--12---------------|--3--3---------------||-----------------------|---------------------||
Tap to rate this tab
 
# A B C D E F G H I J K L M N O P Q R S T U V W X Y Z