Minus The Bear - Thanks For The Killer Game Of Crisco Twister tab

Dave's Parts
Verse 
Play 3 times (Not sure about this)

|-----------------------| |--12-0-----------------| |--------9---12-0--9----| |--------9---------9----| |--------7---------7----| |--------7---------7----|
|------------------------| |---12-0-----------12----| |-----------12-0---------| |----------------12------||------------------------| |------------------------|
Play 4 times |----------------------| |------15-0------------| |---5---------5-14-----| |---5---------5--------| |---3---------3--------| |---3---------3--------|
Pre Chorus|------------------------------------||-------12-----------------12--------| |--9------12------9------12----------| |--9--------12----9----12------------| |--7--------------7------------------| |--7--------------7------------------|
|--------12-----------------12-------| |----------12-------------12---------| |--9---------12-----9---12-----------| |--9----------------9----------------| |--7----------------7----------------| |--7----------------7----------------|
|------------------------------------| |--------15------------------15------| |--5-------14-------5------14--------| |--5---------14-----5----14----------| |--3----------------3----------------| |--3----------------3----------------|
|--------15--------------17-19-20----| |-----------15-17--------------------| |--5----------------5----------------| |--5----------------5----------------| |--3----------------3----------------| |--3----------------3----------------|
Chorus (Not 100%) |- End here last time around|----------------------------||----------------------------||---5---5----7---7--9--------||-3-3-3-3--5-5-5-5--7-7-7--7-| x4|-3-3-3-3--5-5-5-5--7-7-10-7-||-3-3-3-3--5-5-5-5--7-7-7--7-|
Bridge:I can't do this fast enough without just tapping the root notes.(Fast!)|----------------------------------| |-15-------------15-------------15-||------14-------------14-----------| |-12-7----7-12-7-12-7----7----7-12-| x2|----7-12-7----7----7-12-7----7----| |----7----7-12-7----7----7-12-7----|
Then:|----------------------------------| |-15-------------15-------------15-||------14-------------14-----------| |-12-3----3-12-3-12-3----3-12-3-12-||----3-12-3----3----3-12-3----3----| |----3----3-12-3----3----3-12-3----|
Outro (I love this part) Dave: Tap 12 and 15th frets with right hand, barring and tapping 7 with the left. Same for each chord.
|-------------15-15-15-15---------------17-17-17-17-| |-15-15-15-15--------------17-17-17-17--------------| |-------------12-12-12-12---------------14-14-14-14-||-12-12-12-12-10-10-10-10--14-14-14-14--5--5--5--5--| |-7--7--7--7--10-10-10-10--3--3--3--3---5--5--5--5--| |-7--7--7--7--10-10-10-10--3--3--3--3---5--5--5--5--|
Jake comes in with:
|----------------------------| |----------------------------| |-5-5----5h7-5---5-----------| |-5-5-7--5h7-5-7-5-777---5-7-| Repeat |-----7--------7-------7-----| |----------------------------|
Dave:
|---------15~---------------| |---15~----------------17~--||---------12~----17~--------| |-7-12~-7-----10-----7-14~--||-7-----7-----10-15~-7------| |-7-----7-----10-----7------|
|---------15~-------------| |---15~---------------17~-||---------12~---17~-------| |-3-12~-3-----5-----5-14~-||-3-----3-----5-15~-5-----| |-3-----3-----5-----5-----|
Jake Plays:
|--------------| |--------------| |-5---5h7-5----| |-5-7-5h7-5-7--| x 3 |---7-------7--| |--------------|
On the 4th time around....
|------------| |------------| |-5h7/9/12---| |-5----------| |------------| |------------|
End on:
|----| |-15-| |----| |-12-| |-7--| |-7--|
Tap to rate this tab
 
# A B C D E F G H I J K L M N O P Q R S T U V W X Y Z