My Little Pony Friendship Is Magic - Art Of The Dress tab with lyrics by Misc Cartoons - Easy chords and tabs for guitar

Misc Cartoons – My Little Pony Friendship Is Magic - Art Of The Dress tab

Art of the Dress (Melody) - Guitar - My Little Pony: Friendship is Magic

Tabbed by: jhamre01 (jhamre01@gmail.com)
Tuning: Standard

The notes on the B string, 8th fret, can be substituted for 12th-fret G if that is 
easier for you.

There are probably some errors in the Bridge and Fifth Verse, but that's what the melody 
sounded like. Have fun and rock on, bronies!

First VerseE|----------|------------|----------|B|----------|------------|----------|G|-8-10-8~~-|---8-10-8~--|-8-10-8~~-|D|----------|-8----------|----------|A|----------|------------|----------|E|----------|------------|----------|
|----------------|-----------------| |-------8--------|-------8---------| |---8-8---10-8-8-|---8-8---10-8~---| |-8--------------|-8-------------8-| |----------------|-----------------| |----------------|-----------------|
|------------------|------------------| |-------8----------|-------8----------| |---8-8---10-8-8---|---8-8---10-8-8-8-| |-8----------------|-8----------------| |------------------|------------------| |------------------|------------------|
|------------------|------------------| |-------8----------|-----------8~~----| |---8-8---10-8-8-8-|---8-8~~10-----10-| |-8----------------|-8----------------| |------------------|------------------| |------------------|------------------|
Second Verse |----------|------------|----------| |----------|------------|----------| |-8-10-8~~-|---8-10-8~--|-8-10-8~~-| |----------|-8----------|----------| |----------|------------|----------| |----------|------------|----------|
|----------------|-----------------| |-------8--------|-------8---------| |---8-8---10-8-8-|-8-8-8---10-8~---| |-8--------------|---------------8-| |----------------|-----------------| |----------------|-----------------|
|------------------|-----------------| |-------8----------|-------------8-8-| |---8-8---10-8-8---|---8-10-8-10-----| |-8----------------|-8---------------| |------------------|-----------------| |------------------|-----------------|
|-----------------|-----------------| |-------------8---|---------8~------| |---8-10-8-10---8-|----8-8~----10-8-| |-8---------------|-8~--------------| |-----------------|-----------------| |-----------------|-----------------|
|--------------|------------------| |--------------|------------------| |-8--10~-8-8---|---8-8-8-10-10-8~-| |------------8-|-8----------------| |--------------|------------------| |--------------|------------------|
|--------------|------------------| |--------------|------------------| |-8-8-10-8-8---|-----8-8-10-10-8~-| |------------8-|-8-8--------------| |--------------|------------------| |--------------|------------------|
Third Verse |----------|------------|----------| |----------|---------8~-|----------| |-8-10-8~~-|---8-10-----|-8-10-8~~-| |----------|-8----------|----------| |----------|------------|----------| |----------|------------|----------|
|----------------|-----------------| |-------8--------|-------8---------| |---8-8---10-8-8-|---8-8---10-8~-8-| |-8--------------|-8---------------| |----------------|-----------------| |----------------|-----------------|
|-----------------|----------------| |-----------------|-------8--------| |---8-8---8-10-10-|---8-8---10-8-8-| |-8-----8---------|-8--------------| |-----------------|----------------| |-----------------|----------------|
|--------------|----------------| |------------8-|-----------8~---| |-8---8---10---|---8-8~-10----8-| |---8---8------|-8--------------| |--------------|----------------| |--------------|----------------|
First Chorus |-------|--------|-------|--------| |-8-----|--------|-------|--------| |---8-8-|-10-8-8-|-8---8-|-10-8-8-| |-------|--------|---8---|--------| |-------|--------|-------|--------| |-------|--------|-------|--------|
|-------|--------|-------|--------| |-8-----|--------|-------|--------| |---8-8-|-10-8-8-|-8---8-|-10-8-8-| |-------|--------|---8---|--------| |-------|--------|-------|--------| |-------|--------|-------|--------|
|------------------| |------------9-11~~| |-8-8-8-10-8-------| |------------------| |------------------| |------------------|
Fourth Verse |----------|------------|----------| |----------|------------|----------| |-8-10-8~~-|---8-10-8~--|-8-10-8~~-| |----------|-8----------|----------| |----------|------------|----------| |----------|------------|----------|
|----------------|------------------| |-------8--------|-------8----------| |---8-8---10-8-8-|---8-8---10-8-8---| |-8--------------|-8--------------8-| |----------------|------------------| |----------------|------------------|
|----------------|------------------| |-------8--------|-------8----------| |---8-8---10---8-|---8-8---10-8-8---| |-8----------8---|-8--------------8-| |----------------|------------------| |----------------|------------------|
|----------------|------------------| |-------8--------|-------8~---------| |---8-8---10---8-|---8-8----10-8-8~-| |-8----------8---|-8----------------| |----------------|------------------| |----------------|------------------|
Bridge |---------|-----------|---------------|--------| |---------|-----------|---------------|--------| |-8-10-8~-|---8-8/10~-|---8-88-10-8---|-8-10-8-| |---------|-8---------|-8-----------8-|--------| |---------|-----------|---------------|--------| |---------|-----------|---------------|--------|
|----------------|------------------| |-9-9-9-9-8-9-11-|-9-9-9-11-9-8-9-9-| |----------------|------------------| |----------------|------------------| |----------------|------------------| |----------------|------------------|
|----------------|-----------------------| |-9-9-9-9-8-9-11-|-9-9-9-11-9-8-9-9~~-11~| |----------------|-----------------------| |----------------|-----------------------| |----------------|-----------------------| |----------------|-----------------------|
|--------------|------------------| |--------------|------------------| |-8--10~-8-8---|---8-8-8-10-10-8~-| |------------8-|-8----------------| |--------------|------------------| |--------------|------------------|
|--------------|-----------------------| |--------------|-----------------------| |-8--10~-8-8---|---8-8-8--8-8-10-10-8~-| |------------8-|-8---------------------| |--------------|-----------------------| |--------------|-----------------------|
Fifth Verse |------------------|----------------| |-------8----------|-------8--------| |---8-8---10-8-8---|---8-8--------8-| |-8--------------8-|-8-------8-10---| |------------------|----------------| |------------------|----------------|
|------------------|----------------| |-------8----------|-------8--------| |---8-8---10-8-8-8-|---8-8--------8-| |-8----------------|-8-------8-10---| |------------------|----------------| |------------------|----------------|
|----------------|------------------| |-------8--------|-------8----------| |---8-8--------8-|---8-8---10-8-8-8-| |-8-------8-10---|-8----------------| |----------------|------------------| |----------------|------------------|
|------------------|---------------------| |-------8----------|------8-8---9-9/11~~-| |---8-8--------8-8-|-8-10-----8----------| |-8-------8-10-----|---------------------| |------------------|---------------------| |------------------|---------------------|
Third Chorus |-------|--------|-------|--------| |-8-----|--------|-------|--------| |---8-8-|-10-8-8-|-8---8-|-10-8-8-| |-------|--------|---8---|--------| |-------|--------|-------|--------| |-------|--------|-------|--------|
|-------|--------|-------|--------| |-8-----|--------|-------|--------| |---8-8-|-10-8-8-|-8---8-|-10-8-8-| |-------|--------|---8---|--------| |-------|--------|-------|--------| |-------|--------|-------|--------|
|------------------| |------------9-11~~| |-8-8-8-10-8-------| |------------------| |------------------| |------------------|
Please rate this tab:
x1.0