Sesame Street Theme tab with lyrics by Misc Children - Easy chords and tabs for guitar

Misc Children – Sesame Street Theme tab

----------------------------------------------------------------------------
			 SESAME STREET THEME-MISC CHILDREN
----------------------------------------------------------------------------
Tabbed by: J Boy Shyne
Email:

Here's the lyrics and chords followed by the melody line

First Lyrics and chords

CC  DD  EbEb  DEbD (repeat)

C     F               C         F 
Sunny Day Sweepin' the  clouds away              
C     F                G            BCD
On my way to where the air is sweet 
D       Eb   D  C   A  G     G   A  Bb  A  G C 
Can you tell me how to get,  How to get to Sesame Street 

CC  DD  EbEb  DEbD (repeat)

C        F                 C  F
Come and play Everything's A-OK 
C        F                      G             BCD
Friendly neighbors there That's where we meet 
D       Eb   D  C   A  G     G   A  Bb  A  G C 
Can you tell me how to get,  How to get to Sesame Street 

CC  DD  EbEb  DEbD (repeat)

A            E7          A               E7
It's a magic carpet ride Every door will open wide
A                    E7    A                 A 
To Happy people like you-- Happy people like What a beautiful 

C     F               C         F 
Sunny Day Sweepin' the  clouds away              
C     F                G            BCD
On my way to where the air is sweet 
D       Eb   D  C   A  G     G   A  Bb  A  G C 
Can you tell me how to get,  How to get to Sesame Street 
G   A  Bb  A  G C 
How to get to Sesame Street 
G   A  Bb  A  G C 
How to get to Sesame Street 

CC  DD  EbEb  DEbD (repeat)

Now, here's the melody line in tab 
Tuning: Standard Key of C 4/4 time

e|--------|--------|--------|--------|B|1-1-3-3-|4-4-343-|1-1-3-3-|4-4-343-|G|--------|--------|--------|--------|D|--------|--------|--------|--------|A|--------|--------|--------|--------|E|--------|--------|--------|--------|
|---------------------------------------||-1----------1------1-------------0-1-3-||---2----02----2-------2------0-2-------||-----3-3--------3--------3-3-----------||---------------------------------------||---------------------------------------|
|----------------------------------||-0-1-3-4-3-1----------------1-1-1-||-------------2-0--0-2-3-2-0-------||----------------------------------||----------------------------------||----------------------------------|
|--------|--------|--------|--------||1-1-3-3-|4-4-343-|1-1-3-3-|4-4-343-||--------|--------|--------|--------||--------|--------|--------|--------||--------|--------|--------|--------||--------|--------|--------|--------|
|---------------------------------------||-1----------1------1-------------0-1-3-||---2----02----2-------2------0-2-------||-----3-3--------3--------3-3-----------||---------------------------------------||---------------------------------------|
|----------------------------------||-0-1-3-4-3-1----------------1-1-1-||-------------2-0--0-2-3-2-0-------||----------------------------------||----------------------------------||----------------------------------|
|--------|--------|--------|--------||1-1-3-3-|4-4-343-|1-1-3-3-|4-4-343-||--------|--------|--------|--------||--------|--------|--------|--------||--------|--------|--------|--------||--------|--------|--------|--------|
|----------------------------------||--------2-0---------------2-0-2-3-||-----2------2----------2----------||-2-2----------2---2-2-------------||----------------------------------||----------------------------------|
|-------------0-----------------------||---0-2-0---0------0-2-0------0-2-0---||-2-------2------2-------2--2-------2-||-------------------------------------||-------------------------------------||-------------------------------------|
|---------------------------------------||-1----------1------1-------------0-1-3-||---2----02----2-------2------0-2-------||-----3-3--------3--------3-3-----------||---------------------------------------||---------------------------------------|
|----------------------------------||-0-1-3-4-3-1----------------1-1-1-||-------------2-0--0-2-3-2-0-------||----------------------------------||----------------------------------||----------------------------------|
|-----------------||-----------1-1-1-||-0-2-3-2-0-------||-----------------||-----------------||-----------------|
|-----------------||-----------------||-0-2-3-2-0-------||-----------------||-----------3-3-3-||-----------------|
|--------|--------|--------|--------||1-1-3-3-|4-4-343-|1-1-3-3-|4-4-343-||--------|--------|--------|--------||--------|--------|--------|--------||--------|--------|--------|--------||--------|--------|--------|--------|
============================================================================
Please rate this tab:
x1.0