Misc Computer Games - Fire Emblem - Eliwoods Theme tab

Eliwoods theme from fire emblem, the best game ever. Great song, and I'm almost sure
is correct. There is a harmony guitar for a few parts but i tried to do the song to sound
with only itself. Enjoy
Standard tuning

(can play --6//////16-------------------------------------------| if easier for you)--6-8-9-11-13-15-16----------------|-------11---------------------|-----------------------------------|------------14------13--------|-----------------------------------|--13--------------------------|------------------------------13---|------------------------------|-----------------------------------|------------------------------|-----------------------------------|------------------------------|
-------------------------|---------|---------------------|--------11-------13------|---------|---------------------|--13---------------------|---------|-------13------------|-------------------------|---------|----------------13---|-------------------------|---------|---------------------|-------------------------|---------|---------------------|
-------11---------------------|------------11~------------|------------14------13----11--|--13---14------------------|--13--------------------------|---------------------------|------------------------------|---------------------------|------------------------------|---------------------------|------------------------------|---------------------------|
------------------------|-------------------------|------------------------|-------------------------|------------------------|-------13----------------|------------------------|----------------13-------|------------------------|-------------------------|------------------------|-------------------------|
-------11---------------------|-------------------------|------------14-------13-------|--------11-------13------|--13--------------------------|--13---------------------|------------------------------|-----------------13------|------------------------------|-------------------------|------------------------------|-------------------------|
------------------------------------|--------11----------------|--------------11-13-14--------13----|--14-------------13-------|-----10-12-13-----------------------|--------------------------|--13--------------------------------|--------------------------|------------------------------------|--------------------------|------------------------------------|--------------------------|
--11---16---14-------13----11---|--16---18---20------------|--------------------------------|--------------------------|--------------------------------|--------------------------|--------------------------------|--------------------------|--------------------------------|--------------------------|--------------------------------|--------------------------|
Harmony starts here--L---------------------------------|--------13--------20----|------------------------------14----|--16--------------------|------------------------15-17-------|------------------------|---------------15-17-18-------------|------------------------|------------18----------------------|------------------------|------------------------------------|------------------------|
--L----18--------------|-----------------------|--15----18--------16----|-----------------16----|--L----16--------------|------------------------|-----------------------|-----------------17----|------------------------|-----------------------|-----------------------|------------------------|-----------------------|-----------------------|------------------------|-----------------------|-----------------------|------------------------|
(((this harmonizes with the following)<<<<<-------------------|--11----13--------L--13--|--15--16--18--------L--18--|-------------------|-------------------------|---------------------------|-------------------|-------------------------|---------------------------|-------------------|------------------L------|--------------------L------|-------------------|-------------------------|---------------------------|-------------------|-------------------------|---------------------------|
its a 1/2 bend and i only use it because my guitar doesnt have a 23rd fret the Eb needed--20--21--22pb--------------|-------18--------16----|-------------------|----------------------20----|--L--------------------|-------------------|----------------------------|-----------------------|-------------------|----------------------------|-----------------------|-------------------|>.----------------------------|--L--------------------|-------------------|>>>----------------------------|-----------------------|-------------------|>>
stops here ish listen to the song you'll understand------------------------|-------------------------|-------------------------|------------------------|-------------------------|-------------------------|------------------------|-------------------------|--12---13---13-----------|--------15--------17----|-------18--------L-15---|--------------------------|--18--------------------|-------------------------|-------------------------|------------------------|-------------------------|-------------------------|
---------------------------|-------------------------|---------------------------|-------------------------|--L--12h13p12--------------|--L----13----------------|---------------------------|--------------------13---|---------------------------|-------------------------|---------------------------|-------------------------|
-------11-------------------|------------------8------|--L------------------|------------14------13------|--------11-------13------|---------------------|--13------------------------|--13---------------------|---------------------|----------------------------|-------------------------|---------------------|----------------------------|-------------------------|---------------------|----------------------------|-------------------------|---------------------|
-------------------------|-------11---------------------|-------------------------|------------14------13----11--|-------13----------------|--13--------------------------|--------------------13---|------------------------------|-------------------------|------------------------------|-------------------------|------------------------------|
------------11~------------|--L-----------------|-------------------------|--13---14------------------|--------------------|-------------------------|---------------------------|--------------------|-------13----------------|---------------------------|--------------------|----------------13-------|---------------------------|--------------------|-------------------------|---------------------------|--------------------|-------------------------|
-------11---------------------|-------------------------|------------14-------13-------|--------11-------13------|--13--------------------------|--13---------------------|------------------------------|-----------------13------|------------------------------|-------------------------|------------------------------|-------------------------|
------------------------------------|--------11----------------|--------------11-13-14--------13----|--14-------------13-------|-----10-12-13-----------------------|--------------------------|--13--------------------------------|--------------------------|------------------------------------|--------------------------|------------------------------------|--------------------------|
--11---16---14-------13----11---|--16---18---20------------|--------------------------------|--------------------------|--------------------------------|--------------------------|--------------------------------|--------------------------|--------------------------------|--------------------------|--------------------------------|--------------------------|
--L---------------------------------|--------13--------20----|------------------------------14----|--16--------------------|------------------------15-17-------|------------------------|---------------15-17-18-------------|------------------------|------------18----------------------|------------------------|------------------------------------|------------------------|
--L----18--------------|-----------------------|--15----18--------16----|-----------------16----|--L----16--------------|------------------------|-----------------------|-----------------17----|------------------------|-----------------------|-----------------------|------------------------|-----------------------|-----------------------|------------------------|-----------------------|-----------------------|------------------------|
--15------------------|---------------------|------------------------|----------------------|-------13------------|--L----11--------L--11--|--------13------------|--L------------------|------------------------|----------------------|---------------------|------------------------|----------------------|---------------------|------------------------|----------------------|---------------------|------------------------|
----------11------------|--L------------------||--13--14----------------|---------------------||------------------------|---------------------||------------------------|---------------------||------------------------|---------------------||------------------------|---------------------||
Legend L - tied note h - hammer on p - pull off b - bend pb - preBend
Tap to rate this tab
 
# A B C D E F G H I J K L M N O P Q R S T U V W X Y Z