Misc Computer Games – Xevious Theme tab

|----20-19-20-24-20-19-20----20-18-20-24-20-18-20-||-------------------------------------------------||-17----------------------17----------------------||-------------------------------------------------||-------------------------------------------------||-------------------------------------------------|
|----20----20-24-20----20----20----20-24-20----20-||-------22----------22----------21----------21----||-17----------------------17----------------------||-------------------------------------------------||-------------------------------------------------||-------------------------------------------------|
|----20-19-20-24-20-19-20----20-18-20-24-20-18-20-||-------------------------------------------------||-17----------------------17----------------------||-------------------------------------------------||-------------------------------------------------||-------------------------------------------------|
|----20----20-24-20----20----20----20-24-20----20-||-------22----------22----------21----------21----||-17----------------------17----------------------||-------------------------------------------------||-------------------------------------------------||-------------------------------------------------|
|----20-19-20-24-20-19-20----20-18-20-24-20-18-20-||-------------------------------------------------||-17----------------------17----------------------||-------------------------------------------------||-------------------------------------------------||-------------------------------------------------|
|----20----20-24-20----20----20----20-24-20----20-||-------22----------22----------21----------21----||-------------------------------------------------||-22----------------------22----------------------||-------------------------------------------------||-------------------------------------------------|
|----20-19-20-24-20-19-20----20-18-20-24-20-18-20-||-------------------------------------------------||-------------------------------------------------||-22----------------------22----------------------||-------------------------------------------------||-------------------------------------------------|
|----20----20-24-20----20----20----20-24-20----20-*||-------22----------22----------21----------21----*||-17----------------------17----------------------*||-------------------------------------------------*||-------------------------------------------------*||-------------------------------------------------*|
Please rate this tab:
x1.0