Misc Computer Games - Birdo Theme tab

This is the background music in Super Mario when Birdo appears.

This is my first tab...

|--7-7-7-7-7-7-7-7-|7-7-7-7-7-7-7-7-||--5-6-6-5-6-6-5-6-|5-6-6-5-6-6-5-6-||------------------|----------------||------------------|----------------||------------------|----------------||------------------|----------------|
|--6-6-6-6-6-6-6-6-|6-6-6-6-6-6-6-6-||--5-6-6-5-6-6-5-6-|5-6-6-5-6-6-5-6-||------------------|----------------||------------------|----------------||------------------|----------------||------------------|----------------|
|--9-9-9-9-9-9-9-9-|9-9-9-9-9-9-9-9-||--8-9-9-8-9-9-8-9-|8-9-9-8-9-9-8-9-||------------------|----------------||------------------|----------------||------------------|----------------||------------------|----------------|
|--8-8-8-8-8-8-8-8-|8-8-8-8-8-8-8-8-||--7-8-8-7-8-8-7-8-|7-8-8-7-8-8-7-8-||------------------|----------------||------------------|----------------||------------------|----------------||------------------|----------------|
|--7-7-7-7-7-7-7-7-|7-7-7-7-7-7-7-7-||--5-6-6-5-6-6-5-6-|5-6-6-5-6-6-5-6-||------------------|----------------||------------------|----------------||------------------|----------------||------------------|----------------|
|--6-6-6-6-6-6-6-6-|6-6-6-6-6-6-6-6-||--5-6-6-5-6-6-5-6-|5-6-6-5-6-6-5-6-||------------------|----------------||------------------|----------------||------------------|----------------||------------------|----------------|
|--9-9-9-9-9-9-9-9-|9-9-9-9-9-9-9-9-||--8-9-9-8-9-9-8-9-|8-9-9-8-9-9-8-9-||------------------|----------------||------------------|----------------||------------------|----------------||------------------|----------------|
|--8-8-8-8-8-8-8-8-|8-8-8-8-8-8-8-8-||--7-8-8-7-8-8-7-8-|7-8-8-7-8-8-7-8-||------------------|----------------||------------------|----------------||------------------|----------------||------------------|----------------|
Tap to rate this tab
 
# A B C D E F G H I J K L M N O P Q R S T U V W X Y Z