Misc Computer Games - The Last Ninja 2 - Level 1 tab

Last Ninja 2 level 1

found a almost complete tab somewhere and did the missing parts.
mix the pieces together to get the whole thing

tab:a.k Senftleber :}

mig@mailme.dk

e|-----------------------------------------------| b|-----------------------------------------------| g|-8-8-8-8-8-8-----------------------------------| d|-----------------------------------------------| a|-6-6-6-6-6-6-X?--------------------------------| e|-----------------------------------------------|
|-----------------------------------------------| |-----------------------------------------------| |-----------------------------------------------| |-----------------------------------------------| |-8/11\6/13-------------------------------------| |-----------------------------------------------|
|-----------------------------------------------| |-----------------------------------------------| |-----------------------------------------------| |-----------------------------------------------| |-8---------------X5--11------------------------| |----8-11-10--8-6--------11-14-13-11-9----------|
|-----------------------------------------------| |-----------------------------------------------| |-----------------------------------------------| |-----------------------------------------------| |-6------------13-------------------------------| |---6-9-8-6-4-----13-16-15-13-11----------------|
|-----------------------------------------------| |-13----------------13--------------------------| |----15-13----13-15----15-13--------------------| |----------15----------------13-----------------| |-----------------------------------------------| |-----------------------------------------------|
|-----------------------------------------------| |-----------------------------------------------| |-15-13-12-12-13--------------------------------| |----------------13-15--------------------------| |-----------------------------------------------| |-----------------------------------------------|
|-----------------------------------------------| |-13----------------13--------------------------| |----15-13----13-15----15-13--------------------| |----------15----------------13-----------------| |-----------------------------------------------| |-----------------------------------------------|
|-----------------------------------------------| |-----------------------------------------------| |-15-13-12-12-13--------------------------------| |----------------13-12--------------------------| |-----------------------------------------------| |-----------------------------------------------|
|-----------------------------------------------| |------------------11---------------------------| |-10------10-12-13----13-12-10------------------| |----10-----------------------------------------| |-----------------------------------------------| X2|-----------------------------------------------|
|-----------------13-15b13----------------------| |-16b18b16--13-16-------------------------------| |-----------------------------------------------| |-----------------------------------------------| |-----------------------------------------------| |-----------------------------------------------|
|------------------------------------------------| |------------------------------------------------| |------------------------------------------------| |--------------------------------1h3-----3-5-6-8-| |-8--6--5--4-6-X2--------------------X3----------| |------------------1-1-1-1-1-1-1--------1-3-4-6--|
|-----------------------------------------------| |-----------------------------------------------| |-10p8------------------------------------------| |------10p8-------------------------------------| |-----------11p8-6-8----------------------------| X2|-----------------------------------------------|
|-----------------------------------------------| |-----------------------------------------------| |-10--------------10----------------------------| |----10---10---10----10-------------------------| |-------8----8----------------------------------| |-----------------------------------------------|
|-----------------------------------------------| |-----------------------------------------------| |------------8-10------------------8-10-8-------| |-10-8-10-11------10----10-8-10-11--------------| |-----------------------------------------------| |-----------------------------------------------|
|-----------------------------------------------| |-----------------------------------------------| |-13-12-13---------13-12-13---------------------| |----------13-15------------13-12---------------| |-----------------------------------------------| |-----------------------------------------------|
|-----------------------------------------------| |-13----------------13h16-13h16p13b11-----------| |----15-13----13-15-----------------------------| |----------15-----------------------------------| |-----------------------------------------------| |-----------------------------------------------|
|-13-15-16-18-16-15-----------------------------| |-------------------16-15b18--------------------| |-----------------------------------------------| |-----------------------------------------------| |-----------------------------------------------| |-----------------------------------------------|
|-13p11p8h11h13-X?-16p15p11h15h16-X?------------| |-----------------------------------------------| |-----------------------------------------------| |-----------------------------------------------| |-----------------------------------------------| |-----------------------------------------------|
|-18p15p11h15h18-X?-18p13p10h13h18-X?-----------| |-----------------------------------------------| |-----------------------------------------------| |-----------------------------------------------| |-----------------------------------------------| |-----------------------------------------------|
Tap to rate this tab
 
# A B C D E F G H I J K L M N O P Q R S T U V W X Y Z