Misc Computer Games - International Victory Goal - Ride On The Wind tab

International Victory Goal
Track 04
Guitar Tab
Standard Tuning - EADGBE
Tabbed By Jonathan Mack

This Is Track 04 From The Sega Saturn Game
International Victory Goal.



. Palm Mute
h Hammer On
p Pull Off
/ Slide Up
\ Slide Down
H Hold Note/Ring
f Feedback
b Bend String (Half Bend)
v Vibrato
* Pinch Harmonic



Intro


Rhythm Guitar0:03|----------------------|----------------------||----------------------|----------------------||----------------------|----------------------||8-8-8--88-88-5-55-5555|----------------------| x4 |6-5-6--66-66-3-33-3333|6-66-6-8H-------------||----------------------|4-44-4-6H-------------| ...
Pre Verse
Rhythm Guitar0:26|----------------------||----------------------||----------------------||8-8-8H----------------| x1 |6-5-6H----------------||----------------------|
Lead Guitar0:28|13H-fffffffffffffffffffffff-------||----------------------------------||----------------------------------||----------------------------------| x1|----------------------------------||----------------------------------|
Verse One
Rhythm Guitar0:34|-----------------------------------------||-----------------------------------------||-----------------------------------------||8-8888888888888888-----------------------| x2 |6-6666666666666666-6-666-6-6-8H----------||-------------------4-444-4-4-6H----------| ................ ... .
0:46|-----------------------------------------||-----------------------------------------||8-7-8-7--8-7-----------------------------||x-x-x-x--x-x-----------------------------| x2 |6-5-6-5--5-6-6-666-6-6-8H----------------||-------------4-444-4-4-6H----------------| ... .
Lead Guitar0:34|---------------------------------------------------||8-8-8-8-8-9--8h9p8---------------8-8-8--8h9p8------||-------------------8---------8-8--------------10-\\||---------------------8--8/10-----------------------| x1|---------------------------------------------------||---------------------------------------------------|
0:40|---------------------------------------------------||8-8-8-8-8-9--8h9p8---------------9-9-8--8h9p8------||-------------------8---------8-8--------------10-\\||---------------------8--8/10-----------------------| x1|---------------------------------------------------||---------------------------------------------------|
0:46|--------------------------------------------------------||9/11v-9br-8-9-11-------------------------9-8-8h9p8------||-----------------8--8-7-8-----------8-10-----------10-\\||-------------------------------8-10---------------------| x1|--------------------------8-10--------------------------||--------------------------------------------------------| . . . . . .
0:53|------------------------------------------------------------||9/11v-9br-8-9-11-----------------------------9-8-8h9p8------||-----------------8--8-7-8---------------8-10-----------10-\\||---------------------------------8h10*----------------------| x1|----------------------------8h10----------------------------||------------------------------------------------------------| . .
Pre Chorus
Rhythm Guitar0:59|--------------------------------------------------->|----------------------------------4---------------->|--------------------------5---------5-----5-------->|----------------------6-----6---6-----6-----6------> x1|------------------------------6---------6-----6---->|88888888-66666666-444---4-----------------------4--> ........ ........ ... . . . . . . . . . . . . . .
1:05|------------------------------------------||------------------------------------------||------------------------------------------||------------------------------------------| x2|---------66666666----------6--6-6---------||88888888----------44444444-4--4-4---------| ........ ........ ........
Lead Guitar0:58|------------------------------------------------||---------------------------8-8-9--8-8h9p8-------||8-7-8-8-8----8-7v-8-8-8--7----------------10-8-8| |-----------8------------------------------------| x1|------------------------------------------------||------------------------------------------------| .
1:05|------------------------------------------------||---------------------------8-8-9--9/11--16-15-\\||8-7-8-8-8----8-7v-8-8-8--7----------------------| |-----------8------------------------------------| x1|------------------------------------------------||------------------------------------------------| .
1:11|----------------------------------------11/15-15-15-16--15--15h16p15---------||//16-15--16-16-16-------16-15--16-16-16------------------------------18-16-16||------------------12-15------------------------------------------------------||-----------------------------------------------------------------------------| x1 |-----------------------------------------------------------------------------||-----------------------------------------------------------------------------|
1:17|---------------------------------------------15--16--18-18/-23-22-\\||---16-15--16-16-16-16----16-15--16-16-16-16-------------------------||17--------------------15--------------------------------------------||--------------------------------------------------------------------| x1|--------------------------------------------------------------------||--------------------------------------------------------------------|
Chorus One
Rhythm Guitar1:25|-------------|-------------|-------------|-------------||-------------|-------------|-------------|-------------||-----666-8H--|-----666-8H--|-----666-8H--|-----666-----||9-99-666-8H--|9-99-666-8H--|9-99-666-8H--|9-99-666-8H--| x2 |9-99-444-6H--|9-99-444-6H--|9-99-444-6H--|9-99-444-8H--||7-77---------|7-77---------|7-77---------|7-77-----6H--|
Lead Guitar1:25|--------------------------------------------||9/11v-9br-8-9-11----------------------------||-----------------8--8-7-8\-4-6-8-6-8-8/10-8v||--------------------------------------------| x1|--------------------------------------------||--------------------------------------------|
1:31|--------------------------------------------||9/11v-9--8-9-11--------------------------11v||----------------8--8-7-8\-4-6-8-6-8-8/10----||--------------------------------------------| x1|--------------------------------------------||--------------------------------------------|
1:37|17br-16br-15-16-18------------------------------13--------||-------------------16--16-15-16-----14-16-14-16----16H-\\-||--------------------------------16------------------------||----------------------------------------------------------| x1 |----------------------------------------------------------||----------------------------------------------------------|
1:43|17br-16br-15-16-18------------------------------13-18H--||-------------------16--16-15-16-----14-16-14-16---------||---------------------------------16---------------------||--------------------------------------------------------| x1 |--------------------------------------------------------||--------------------------------------------------------|
Pre Verse
Rhythm Guitar1:51|----------------------|----------------------||----------------------|----------------------||----------------------|----------------------||8-8-8--88-88-5-55-5555|----------------------| x2|6-5-6--66-66-3-33-3333|6-66-6-8H-------------||----------------------|4-44-4-6H-------------|
...2:03|-----||-----||-----||8-8-8| x1 |6-5-6||-----|
Verse Two
Rhythm Guitar2:04|-----------------------------------------||-----------------------------------------||-----------------------------------------||8-8888888888888888-----------------------| x2 |6-6666666666666666-6-666-6-6-8H----------||-------------------4-444-4-4-6H----------| ................ ... .
2:17|-----------------------------------------||-----------------------------------------||8-7-8-7--8-7-----------------------------||x-x-x-x--x-x-----------------------------| x2 |6-5-6-5--5-6-6-666-6-6-8H----------------||-------------4-444-4-4-6H----------------| ... .
Lead Guitar2:04|---------------------------------------------------||8-8-8-8-8-9--8h9p8---------------8-8-8--8h9p8------||-------------------8---------8-8--------------10-\\||---------------------8--8/10-----------------------| x1|---------------------------------------------------||---------------------------------------------------|
2:11|---------------------------------------------------||8-8-8-8-8-9--8h9p8---------------9-9-8--8h9p8------||-------------------8---------8-8--------------10-\\||---------------------8--8/10-----------------------| x1|---------------------------------------------------||---------------------------------------------------|
2:17|--------------------------------------------------------||9/11v-9br-8-9-11-------------------------9-8-8h9p8------||-----------------8--8-7-8-----------8-10-----------10-\\||-------------------------------8-10---------------------| x1|--------------------------8-10--------------------------||--------------------------------------------------------| . . . . . .
2:24|-----------------------------------------------------------||9/11v-9br-8-9-11----------------------------9-8-8h9p8------||-----------------8--8-7-8--------------8-10-----------10-\\||--------------------------------8h10*----------------------| x1|---------------------------8h10----------------------------||-----------------------------------------------------------| . .
Pre Chorus
Rhythm Guitar2:30|--------------------------------------------------->|----------------------------------4---------------->|--------------------------5---------5-----5-------->|----------------------6-----6---6-----6-----6------> x1|------------------------------6---------6-----6---->|88888888-66666666-444---4-----------------------4--> ........ ........ ... . . . . . . . . . . . . . .
2:36|------------------------------------------||------------------------------------------||------------------------------------------||------------------------------------------| x2|---------66666666----------6--6-6---------||88888888----------44444444-4--4-4---------| ........ ........ ........
Lead Guitar2:30|------------------------------------------------||---------------------------8-8-9--8-8h9p8-------||8-7-8-8-8----8-7v-8-8-8--7----------------10-8-8| |-----------8------------------------------------| x1|------------------------------------------------||------------------------------------------------| .
2:36|------------------------------------------------||---------------------------8-8-9--9/11--16-15-\\||8-7-8-8-8----8-7v-8-8-8--7----------------------| |-----------8------------------------------------| x1|------------------------------------------------||------------------------------------------------| .
2:42|-------------------------------------------15-15-15-16--15--15h16p15---------||//16-15--16-16-16-------16-15--16-16-16-16---------------------------18-16-16||------------------12-15------------------------------------------------------||-----------------------------------------------------------------------------| x1 |-----------------------------------------------------------------------------||-----------------------------------------------------------------------------|
2:48|---------------------------------------------15--16--18-18/-23-22-\\||---16-15--16-16-16-16----16-15--16-16-16-16-------------------------||17--------------------15--------------------------------------------||--------------------------------------------------------------------| x1|--------------------------------------------------------------------||--------------------------------------------------------------------|
Chorus Two
Rhythm Guitar2:56|-------------|-------------|-------------|-------------||-------------|-------------|-------------|-------------||-----666-8H--|-----666-8H--|-----666-8H--|-----666-----||9-99-666-8H--|9-99-666-8H--|9-99-666-8H--|9-99-666-8H--| x2 |9-99-444-6H--|9-99-444-6H--|9-99-444-6H--|9-99-444-8H--||7-77---------|7-77---------|7-77---------|7-77-----6H--|
Lead Guitar2:56|--------------------------------------------||9/11v-9br-8-9-11----------------------------||-----------------8--8-7-8\-4-6-8-6-8-8/10-8v||--------------------------------------------| x1|--------------------------------------------||--------------------------------------------|
3:02|--------------------------------------------||9/11v-9--8-9-11--------------------------11v||----------------8--8-7-8\-4-6-8-6-8-8/10----||--------------------------------------------| x1|--------------------------------------------||--------------------------------------------|
3:08|17b-16b-15-16-18--------------------------------13--------||-----------------16--16-15-16-------14-16-14-16----16H-\\-||------------------------------16-16-----------------------||----------------------------------------------------------| x1 |----------------------------------------------------------||----------------------------------------------------------|
3:15|17b-16b-15-16-18------------------------------13-18H--||-----------------16--16-15-16-----14-16-14-16---------||------------------------------16----------------------||------------------------------------------------------| x1 |------------------------------------------------------||------------------------------------------------------|
Outro
Rhythm Guitar3:22|-------------||-------------||-------------||8-8-8--8-8-\-| x1 |6-6-6--6-6-\-||-------------|
Tap to rate this tab
 
# A B C D E F G H I J K L M N O P Q R S T U V W X Y Z