Misc Computer Games – V-rally 2 - Rhapsody tab

V-Rally Championship Edition 2
Track 2 - RHAPSODY
Guitar Tab
Drop D Tuning - DADGBE
Tabbed By Jonathan Mack


This Is Music Track 2 From The Playstion Game V-Rally 2.

. Palm Mute
/ Slide Up
H Hold Note/Ring Out
P Pre Bend (Full Bend)
r Release Bend
B Bend     (Full Bend)
D Downward Strum
U Upward Strum
t Tremelo


Intro


Rhythm Guitar0:00|----------------------------------------------------------||----------------------------------------------------------||----------------------------------------------------------||------10---9---9---12---10---10---14---12---15---14---15--| x4|0-0-0----0---0---0----0----0----0----0----0----0----0-----||----------------------------------------------------------|
Lead Guitar 0:07|15PB-(17)-r-15B-(17)| |--------------------||--------------------||--------------------| x1|--------------------||--------------------|
Verse One
Rhythm Guitar (Distorted)0:21|----------|----------|----------|----------||----------|----------|----------|----------||----------|----------|----------|----------||----------|----------|----------|----------| x2|22-2-222-2|22-2-222-2|22-2-222-2|22-2-222-2||22-2-222-2|22-2-222-2|22-2-222-2|22-2-222-2| .. . ... . .. . ... . .. . ... . .. . ... . DD D DUU U DD D DUU U DD D DUU U DD D DUU U
0:36|----------|----------|----------||----------|----------|----------||----------|----------|----------||----------|----------|----------| x1|22-2-222-2|22-2-222-2|22-2-222-2||22-2-222-2|22-2-222-2|22-2-222-2| .. . ... . .. . ... . .. . ... . DD D DUU U DD D DUU U DD D DUU U
Lead Guitar0:22|15PB-(17)-r-15B-(17)| |--------------------||--------------------||--------------------| x2|--------------------||--------------------|
Chorus One
Rhythm Guitar0:42|----------------------------------------------------------||----------------------------------------------------------||----------------------------------------------------------||------10---9---9---12---10---10---14---12---15---14---15--| x4|0-0-0----0---0---0----0----0----0----0----0----0----0-----||----------------------------------------------------------|
Lead Guitar0:42|15PB-(17)-r-15B-(17)| |--------------------||--------------------||--------------------| x4|--------------------||--------------------|
Guitar Three0:42|12--12-12-13-------20||-------------12------||---------------------||---------------------| x17|---------------------||---------------------|
Verse Two
Rhythm Guitar (Distorted)1:11|----------|----------|----------|----------||----------|----------|----------|----------||----------|----------|----------|----------||----------|----------|----------|----------| x2|22-2-222-2|22-2-222-2|22-2-222-2|22-2-222-2||22-2-222-2|22-2-222-2|22-2-222-2|22-2-222-2| .. . ... . .. . ... . .. . ... . .. . ... . DD D DUU U DD D DUU U DD D DUU U DD D DUU U
1:26|----------|----------|----------||----------|----------|----------||----------|----------|----------||----------|----------|----------| x1|22-2-222-2|22-2-222-2|22-2-222-2||22-2-222-2|22-2-222-2|22-2-222-2| .. . ... . .. . ... . .. . ... . DD D DUU U DD D DUU U DD D DUU U
Lead Guitar1:12|15PB-(17)-r-15B-(17)| |--------------------||--------------------||--------------------| x4|--------------------||--------------------|
Break Down
Rhythm Guitar1:32|----------------------------------------------------------||----------------------------------------------------------||----------------------------------------------------------||------10---9---9---12---10---10---14---12---15---14---15--| x1|0-0-0----0---0---0----0----0----0----0----0----0----0-----||----------------------------------------------------------|
Guitar Three (Played Clean)1:39|----------------------------------------------------------||----------------------------------------------------------||----------------------------------------------------------||------10---9---9---12---10---10---14---12---15---14---15\\| x4|0-0-0--0-0---0-0-0----0--0-0----0----0--0-0----0--0-0-----||7---------------------------------------------------------|
Verse Three
Rhythm Guitar (Distorted)2:08|----------|----------|----------|----------||----------|----------|----------|----------||----------|----------|----------|----------||----------|----------|----------|----------| x2|22-2-222-2|22-2-222-2|22-2-222-2|22-2-222-2||22-2-222-2|22-2-222-2|22-2-222-2|22-2-222-2| .. . ... . .. . ... . .. . ... . .. . ... . DD D DUU U DD D DUU U DD D DUU U DD D DUU U
Lead Guitar2:09|15PB-(17)-r-15B-(17)| |--------------------||--------------------||--------------------| x4|--------------------||--------------------|
Bridge Section/Outro
Rhythm Guitar 2:23|----------|----------|-------|-------||----------|----------|-------|-------||----------|----------|-------|-------||----------|----------|-------|-------| x2|55-5-555-5|55-5-555-5|33-3-3-|33-3-3-||55-5-555-5|55-5-555-5|33-3-3-|33-3-3-| .. . ... . .. . ... . .. . . .. . . DD D DUU U DD D DUU U DD D D DD D D
2:34|----------||----------||----------||----------| x4|222-2/3-33||222-2/3-33| ...
2:42 |-------------------------------||-------------------------------||-------------------------------||-------------------------------| x1|-------------------------------||5-5-5-5-5-5-5-5-5-5-5-5-5-5-5-5| . . . . . . . . . . . . . . . .
2:49 |----------|----------|-------|-------||----------|----------|-------|-------||----------|----------|-------|-------||----------|----------|-------|-------| x2|55-5-555-5|55-5-555-5|33-3-3-|33-3-3-||55-5-555-5|55-5-555-5|33-3-3-|33-3-3-| .. . ... . .. . ... . .. . . .. . . DD D DUU U DD D DUU U DD D D DD D D
3:00|----------||----------||----------||----------| x4|222-2/3-33||222-2/3-33| ...
3:08|-------------------------------||-------------------------------||-------------------------------||-------------------------------| x1|-------------------------------||5-5-5-5-5-5-5-5-5-5-5-5-5-5-5-5| . . . . . . . . . . . . . . . .
3:15|----------||----------||----------||----------| x4|222-2/3-33||222-2/3-33| ...
3:22|-------------------------------||-------------------------------||-------------------------------||-------------------------------| x2|-------------------------------||5-5-5-5-5-5-5-5-5-5-5-5-5-5-5-5| . . . . . . . . . . . . . . . .
3:37 tttttttttttttttttttttttttttttttt|--------------------------------||--------------------------------||--------------------------------||--------------------------------| x2|--------------------------------||77777777777777777777777777777777| ................................
3:45|-------------------------------||-------------------------------||-------------------------------||-------------------------------| x1|-------------------------------||5-5-5-5-5-5-5-5-5-5-5-5-5-5-5-5| . . . . . . . . . . . . . . . .
3:52 tttttttttttttttttttttttttttttttt|--------------------------------||--------------------------------||--------------------------------||--------------------------------| x2|--------------------------------||77777777777777777777777777777777| ................................
Lead Guitar2:25|--------------------||--------------------||--------------------||5H---3H---5H---2H---| x1|--------------------||--------------------|
2:49|--------------------||--------------------||--------------------||5H---3H---5H---2H---| x1|--------------------||--------------------|
Guitar Three3:37|12--12-12-13-------20||-------------12------||---------------------||---------------------| x3|---------------------||---------------------|
3:43|12--12-12-13-------20--13-12||-------------12-------------||----------------------------||----------------------------| x1|----------------------------||----------------------------|
3:52|12--12-12-13-------20||-------------12------||---------------------||---------------------| x3|---------------------||---------------------|
3:58|12--12-12-13-------20--13-12||-------------12-------------||----------------------------||----------------------------| x1|----------------------------||----------------------------|
Please rate this tab:
x1.0