Misc Computer Games - Final Fantasy 7 - Aeriths tab

Aeris's (Aerith's) Theme
Final Fantasy VII
This is the complete tab for the entire song, I got the
orchestrated version. It's about 5 minutes long. Theres only
one difference between the midi version and the orchestrated, but
I still reccomend getting the Orchestrated Version. 

Standard Tuning e-b-g-d-a-e-
Intro:
--10--9--7--5----10--9--7--5------------------------------------------------------------------5---5--7--8--7--5--3----0--3----------------------------------------------------------------------------------------------------------------------------------------------------------------------------------------------------------------------------------------------------------------------
About 37 Seconds into it;
---------10----8------------------10--9--12--10--7--9--5----------7--10-----------10-------7--10------------------------------------------------------9-----------------------------------------------------------------------------------------------------------------------------------------------------------------------------------------------------------------------------------------
---------10----8------------------10--9--12--10--7--9--5----------7--10-----------10-------7--10--------------------------5---------------------------9-----------------------------------------------------------------------------------------------------------------------------------------------------------------------------------------------------------------------------------------
---------10---8---------------------------------------------------7--10----------10------------------------------------------------------------------9----7--9--7----10--9--7--9--7----7--------------------------------------------------------------------------------------------------------------------------------------------------------------------------------------------------------
About 1:22 in;----------------------------------------------------------------------------------------------------15----------------------------7--9--11----11--12--14----14--16------16--12--14--h16--p14----------------------------------------------------------------------------------------------------------------------------------------------------------------------------------------------------
About 1:33 in;--------------9--7--5--------------------------------------------------------------------12--10------12--10--8--------------------14--11------------------------------------------------------------------11---------------------12-------------------------------------------------------------------------------------------------------------------------------------------------------------
--------------9--7--5--------------------------------------------------------------------12--14--15-------------------------------14--11------------------------------------------------------------------11------------------------------------------------------------------------------------------------------------------------------------------------------------------------------------
---------------------------------------14--14---------------------15--14--12--10--7----15--14--12--14-------------------------------------------------------------------------------------------------------------------------------------------------------------------------------------------------------------------------------------------------------------------------------------------
------------------------------------------------------------------15--14--12--10--5----5--7--8--7--5--3----8--7--3--5--3------------------------------------------------------------------------------------------------------------------------------------------------------------------------------------------------------------------------------------------------------------------------
--10--9--7--5------------------------------------------------------------------5----5--7--8--7--5--3----0--3------------------------------------------------------------------------------------------------------------------------------------------------------------------------------------------------------------------------------------------------------------------------------------
about 2:40 into the song;
---------10----8------------------10--9--12--10--7--9--5----------7--10-----------10-------7--10---------------------------5--------------------------9-----------------------------------------------------------------------------------------------------------------------------------------------------------------------------------------------------------------------------------------
---------10---8---------------------------------------------------7--10----------10------------------------------------------------------------------9----7--9--7----10--9--7--9--7----7--------------------------------------------------------------------------------------------------------------------------------------------------------------------------------------------------------
----------------------------------------------------------------------------------------------------15----------------------------7--9--11----11--12--14----14--16------16--12--14--h16--p14----------------------------------------------------------------------------------------------------------------------------------------------------------------------------------------------------
--------------9--7--5--------------------------------------------------------------------12--10------12--10--8--------------------14--11------------------------------------------------------------------11---------------------12-------------------------------------------------------------------------------------------------------------------------------------------------------------
--------------9--7--5--------------------------------------------------------------------12--14--15-------------------------------14--11------------------------------------------------------------------11------------------------------------------------------------------------------------------------------------------------------------------------------------------------------------
---------------------------------------14--14---------------------15--14--12--10--7----15--14--12--14-------------------------------------------------------------------------------------------------------------------------------------------------------------------------------------------------------------------------------------------------------------------------------------------
------------------------------------------------------------------15--14--12--10----5---5--7--8--7--5--3--8--7--3--5--3-------------------------------------------------------------------------------------------------------------------------------------------------------------------------------------------------------------------------------------------------------------------------
--10--9--7--5------------------------------------------------------------------5----5--7--8--7--5--3--------------------------------------------------------------------------------------------------------------------------------------------------------------------------------------------------------------------------------------------------------------------------------------------
-_-_-_-_-_-_-_-_-_-_-_-_-_-_-_-_-_-_-_-_-_-_-_-_-_-_-_-_-_-_-_-_-_-_-_
Note: You don't have to play exactly what I play, just play whatever'sfeels right. For example,--------------9--7--5-------------------------------14--11---------------------------11---------------------------------------------------------------
can be converted to:--------------9--7---------10----------------8----------11---------------------------11--------------------------------------------------------------- Which might actually be easier to play.
kirei_008@hotmail.com check out more anime/ video game tabs @ http://fly.to/kawp
Tap to rate this tab
 
# A B C D E F G H I J K L M N O P Q R S T U V W X Y Z