Misc Computer Games - Doom - Hanger tab

Artist/Game: The Ultimate Doom
Song: E1M1: Hanger
Transcribed by Kyle "Tsunekuni" Kraschneske
Music by Robert Prince


This is my first tab, and its in standard tuning, and doesn't have much special. I'm
pretty sure its correct, I tabbed it from the midi, so you might need to switch some
stuff. :P

[4/9/06] Fixed some of my misplaced tremolo marks, and added a skill rating. The only 
I put intermediate is becuase of the fast parts. And, as I said in the tab, you can just 
notes while ascending to get the same sound(during the fast parts).

--------------------------------------------|--------------------------------------------|--------------------------------------------|-------2------0---------------------------2-|---------------------3------1-----2-3-------|--0--0---0--0---0--0---0--0---0-0-----0-0---|
---------------------------------------|---------------------------------------|---------------------------------------|-------0------------------------2------|-------------3-------1~----------------|---0-0---0-0----0--0-------0--0---0--0-|
-------------------------------------------|-------------------------------------------|-------------------------------------------|--0----------------------------2-----0-----|---------3------1-----2-3------------------|----0--0---0--0---0-0-----0--0---0-0---0-0-|
-----------------------------------------|-----------------------------------------|-----------------------------------------|--------------------2------0-------------|--3------1~-----------------------3------|----0--0-------0--0---0--0---0--0---0--0-|
------------------------------------------|------------------------------------------|------------------------------------------|-------------------2------0---------------|---1------2-3-------------------3------1~-|-----0--0-----0--0---0--0---0-0----0-0----|
-----------------------------------------|-----------------------------------------|-----------------------------------------|---------2------0------------------------|-----------------------3------1------2-3-|-----0-0---0--0---0--0---0--0---0--0-----|
Note: This part is insanely fast, good luck. You can also just slam notes while ascending.---------------------2-0---0-3-2---2-3-5-5-3-2---------|-------------------------4-7-----4-----7-------4-------|-------------------------------------------------------|-------2------0--------------------------------------2-|-------------------------------------------------------|--0--0---0--0---0-0------------------------------0-0---|
---------------------------------------------|---------------------------------------------|---------------------------------------------|--------0-----------------------------2------|---------------3------1------2-3-------------|---0--0---0--0---0--0---0--0-----0--0---0--0-|
---------------------------------------|---------------------------------------|---------------------------------------|--0-----------------------2-----0------|---------3------1~---------------------|----0--0----0-0-------0-0---0-0---0--0-|
----------------------------------------7-3-3-7-|------------------------------------------0-----|------------------------------------------------|-------------------------2------0---------------|--3------1~-----2-3-----------------------------|----0--0---0--0-----0--0---0--0---0--0----------|
--3-7-12---------7-12-15-19-----------------------------|---------12-8--8----------------------------------------|------------11------------------2-----0-----------------|--------------------------------------------3------1----|----------------------------0-0---0-0---0-0---0--0---0--|--------------------------------------------------------|
---------------------------------------|---------------------------------------|-------------2------0------------------|----2-3--------------------3------1~---|--0-----0--0---0--0---0--0---0--0------|---------------------------------------|
--------------------------------------------|--------------------------------------------|-------2-----0----------------------------2-|-------------------3------1------2-3--------|--0--0---0-0---0-0---0--0---0--0-----0--0---|--------------------------------------------|
----------------0---0-------0-0---0---0---------------|------------------1---1---1-5---1---1---1-------------|--------0-------2-------2-----------------------------|----------------------------------------2------2------|---0--0---0--0----------------------------------------|------------------------------------------0--0---0--0-|
-------------------------------------------|-------------------------------------------|-------------------------------------------|--0--------------------------2------0------|--------3-----1------2-3-------------------|----0-0---0-0---0--0-----0-0---0--0---0--0-|
---------------------------------------|---------------------------------------|---------------------------------------|--------------------2------0-----------|---3------1~---------------------3-----|-----0--0------0--0---0--0---0-0---0-0-|
-----------------------------------------|-----------------------------------------|-----------------------------------------|------------------2------0---------------|---1------2-3-------------------3------1-|-----0--0-----0-0---0--0---0--0---0--0---|
-----------------------------------------|----------2------------------------------|-----------------4------2-----0------1-2-|-----------------------------------------|-----4--4---4--4---4--4---4-4---4--4-----|-----------------------------------------|
----------------------------------------|-------0--------------------------------|-------------2------0-------------------|----------------------------3---------2-|---2-2---2-2---2--2----1--0-------------|---------------------------------0--0---|
-----------------------------------------|-----------------------------------------|-----------------------------------------|--------0--------------------------2-----|---------------3-----1~----2-3-----------|---0--0---0--0---0-0---0-0-----0-0---0-0-|
---------0-3-----0---0-3-0-----0-7-12--------------------|-------------0-----0-------0---3-------------------------|---------------0---7---------0---------------------------|--0----------------------------------------2------0------|---------------------------------------------------------|----0--0------------------------------0--0---0--0---0--0-|
-------------------------------------------|-------------------------------------------|-------------------------------------------|-------------------------2-----0-----------|---3------1-----2-3------------------3-----|-----0--0---0-0-----0--0---0-0---0-0----0--|
-----------------------------------------|-----------------------------------------|-----------------------------------------|---------------2------0------------------|----1~-----------------------3------1----|--0-------0--0---0--0---0--0---0--0---0--|
----------------------------------------5-2---7-5---|--------------------------4---0-2-4-0-------4-----7-|----------------------------5---------2-------------|-------------2-----0------------4-----------4-------|----2-3---------------------------------------------|--0-----0--0---0-0---0-0----------------------------|
----------------------------------------------|--4-------------------------------------------|---------0------------------------------------|----------------4------1------0------0-2------|----------------------------------------------|----0--0---0--0---0--0---0--0---0--0-----0--0-|
---------------------------------------|---------------------------------------|--0-----------------------------0------|---------4-----2-----------------------|----------------------4----------------|----0--0---0-0----0-0-------0-0---0--0-|
----------------------------------------------|----------------------------------------------|--------------------------------0-------------|--4------1------0------0-2-------------4------|----------------------------------------------|----0--0---0--0---0--0-----0--0---0--0---0--0-|
---12-------0--12-----------7-12-7---------------------------|------12----------12------8--------8-------1-----0-----------|---------12-11-------12-9---7--------9------------------1----|-------------------------------------------------------------|---------------------------------------0-0---0-0---0--0---0--|-------------------------------------------------------------|
-------------------------------------------|--------------------1------0---------------|----0------0-2--------------------2------0-|-------------------------------------------|--0---0--0-----0--0---0--0---0--0----0-0---|-------------------------------------------|
----------------------------------------|---------1-----0------------------------|----------------------1------0------0-2-|----------------------------------------|-----0-0---0-0---0--0---0--0---0--0-----|----------------------------------------|
-----------------------0---0-------0-5---0---0--------|--------1------0---------3---1---1---0-----1---1------|-------------------------0-----2-------5---------2----|------------------------------------------------------|---0--0---0--0---0--0---------------------------------|----------------------------------------------------0-|
--------------------------------------------|--------------------------------------------|--0----------------------------------0------|--------4-----1------0------0-2-------------|--------------------------------------------|----0-0---0-0---0--0---0--0-----0--0---0--0-|
---------------------------------------|---------------------------------------|---------------------------0-----------|---4------2----------------------4-----|-----------------4---------------------|-----0--0---0--0------0--0---0-0---0-0-|
--------------------------------------------|--------------------------------------------|-------------------------0------------------|---1-----0------0-2-------------4------2----|--------------------------------------------|-----0-0---0--0-----0--0---0--0---0--0---0--|
|-------------3------2-----0---------||--------------------------------2---||------------------------------------||------------------------------------||---4----4--4---4--4---4-4---4-4---4-||--0---------------------------------|
-------0-----2------0------------------|-----2---------------------4------0----|---------------------------------------|---------------------------------------|---4-----2-2---2--2---2--2---1--0------|---------------------------------------|
------------------------------------------|------------------------------------------|--------0---------------------------------|---------------4-----1-----0------0-2-----|------------------------------------------|---0--0---0--0---0-0---0-0---0--0-----0-0-|
----------------5-2-----------7-5---------------||--------------------4-------------7-4-----------||--0-------------------4-2-------------4-2-------||---------4----------------4-1-------------1-----||----------------------------------------4-------||----0--0---0--0-------------2-------------------||
I have a few more Doom songs tabbed. I'll post 'em when I get around to it. :P
Tap to rate this tab
 
# A B C D E F G H I J K L M N O P Q R S T U V W X Y Z