Misc Computer Games - Doom - Military Basee tab

Artist/Game: The Ultimate Doom
Song: E1M9: Military Base
Transcribed by Kyle "Tsunekuni" Kraschneske
Music by Robert Prince

This one is in stanard tuning with some overdrive, and this is from special level from
Episode 1 if you don't recognize it. I tabbed this with the midi as I did with the other
one.
Anyway, fun song, and have fun playing it. 

[4/9/06] I corrected the vibratos. 


E|------------------------0-|------------------------------|B|--4-2--2-0-2--2--4-2--4---|--4-2--0-4--2--2-0--2--2--4-2-|G|--------------------------|------------------------------|D|--------------------------|------------------------------|A|--------------------------|------------------------------|e|--------------------------|------------------------------|
---------------------------|-----------0----------------|---4--4-------4-2--2-0--2--|--2-4-2--4---4--2-0-4-2--2--|----------4b---------------|----------------------------|---------------------------|----------------------------|---------------------------|----------------------------|---------------------------|----------------------------|
----------------------------|-----------------------0-----|--0-2--2-4--2--4-4-------4--|--2--2--0-2--2--4-2--4---4-2-|---------------------4------|-----------------------------|----------------------------|-----------------------------|----------------------------|----------------------------|----------------------------|-----------------------------|
----------------------------|---0-----------------------|---0-4--2--2-0--2--2-4-2--4-|-------0---4-2--2-0-2--2-4-|----------------------------|---------------------------|----------------------------|---------------------------|----------------------------|---------------------------|----------------------------|---------------------------|
--------0--------------------|-------------0-------4--2-|---2--4----4-2-0-4-2--2--0-2-|----2-4-2--4-----0--------|-----------------------------|--------------------------|-----------------------------|--------------------------|-----------------------------|--------------------------|-----------------------------|--------------------------|
---2-0-2--2-4-2--4--5-4-2-0-|----4-2--2-0-2--2-4--2--4-5-|----------------------------|----------------------------|----------------------------|----------------------------|----------------------------|----------------------------|----------------------------|----------------------------|----------------------------|----------------------------|
--------4-2--2-0-2--2-4--2-|----4-5--4-2--0-4-2--2-0-2--|----5----------------------|----------------------------|---------------------------|----------------------------|---------------------------|----------------------------|---------------------------|----------------------------|---------------------------|----------------------------|
---2--4-2--4--4---0---------|-------------------0-----------|---------------------4-2--2-|---0--2--2-4-2--4----4--2-0--4-|----------------------------|-------------------------------|----------------------------|-------------------------------|----------------------------|-------------------------------|----------------------------|-------------------------------|
-----------------------0--|---------------------------|---2--2-0-2--2-4--2--4----|---0---4-2--2-0-2--2--4-2--|--------------------------|---------------------------|--------------------------|---------------------------|--------------------------|---------------------------|--------------------------|---------------------------|
-----0------------------------|-----------0----------------|---4---4-2--0-4--2--2-0--2--2-|---4-2--4------0--------0---|------------------------------|-------------------1-2----2-|------------------------------|----------------------------|------------------------------|----------------------------|------------------------------|----------------------------|
-------------0-------------|------------------0-------|------0-2-4----4---2-------|---0-------0-2-4----2---0-|---1-------------------1-2-|------2-1-----------------|---------------------------|--------------------------|---------------------------|--------------------------|---------------------------|--------------------------|
------------------------0-|------0----------------------|---------0------0--2-4----|---2------------0--------0-2-|---1--2----2-1------------|----------1--2----2--1-------|--------------------------|-----------------------------|--------------------------|-----------------------------|--------------------------|-----------------------------|
------0-----0----------0-------|--------------------------------|---4----2-------2--2-4----4--4-|--2--0---------0---------2--2-4-|-------------------------------|-------1--1-2----2---1----------|-------------------------------|--------------------------------|-------------------------------|--------------------------------|-------------------------------|--------------------------------|
--0--2-0------------------------|-----4-3--4-5-4---4-----------0-|----------4-2---------0---------|--2-------------5-----4--3-4----|--------------1--1--2---2---1---|--------------------------------|--------------------------------|--------------------6-----------|--------------------------------|--------------------------------|--------------------------------|--------------------------------|
---------4-3--4-0-4----4------|------0-------------------|-------2------------4-------4-|--3-4---------4-2--2-0-2--|---2---------------------1----|----------2---------------|------------------------------|--------------------------|------------------------------|--------------------------|------------------------------|--------------------------|
-----------0----------------|------------------0--------|--2-4-2--4----4-2--0-4-2--2-|--0-2--2--4-2--4------0--4-|----------------------------|---------------------------|----------------------------|---------------------------|----------------------------|---------------------------|----------------------------|---------------------------|
------------------------0----|---------------------------|--2--2-0--2--2-4--2--4----4--|--2-0--4-2--2-0-2--2-4--2--|-----------------------------|---------------------------|-----------------------------|---------------------------|-----------------------------|---------------------------|-----------------------------|---------------------------|
----0-------4-2--2--0-2--2--|--4-2--4-5-4-2--0-4--2--2-0--|--4-----0-------------------|-----------------------------|----------------------------|-----------------------------|----------------------------|-----------------------------|----------------------------|-----------------------------|----------------------------|-----------------------------|
--2--2--4-2--4--5-------4-2--|---2-0--2--2-4-2--4-5--4-2-0-|--------------------5--------|-----------------------------|-----------------------------|-----------------------------|-----------------------------|-----------------------------|-----------------------------|-----------------------------|-----------------------------|-----------------------------|
---4-2--2--0-2--2-4--2--4-4-|----0-----------------------|----------------------------|--------4--2--2-0-2--2--4-2-|----------------------------|----------------------------|----------------------------|----------------------------|----------------------------|----------------------------|----------------------------|----------------------------|
------0---------------------|------------0--------------|----4---4--2-0-4--2--2-0-2--|---2-4-2--4-----0---4-2--2-|----------------------------|---------------------------|----------------------------|---------------------------|----------------------------|---------------------------|----------------------------|---------------------------|
-------------------0----------|-----------------------0--|----0-2--2-4--2--4----4-2-0-4-|---2--2--0-2--2-4-2--4----|------------------------------|--------------------------|------------------------------|--------------------------|------------------------------|--------------------------|------------------------------|--------------------------|
---------------------------|---0------------------------|---0---------0------0-2-4--|------4---2--------0------0-|-------1--2----2-1---------|--------------1-2----2-1----|---------------------------|----------------------------|---------------------------|----------------------------|---------------------------|----------------------------|
---------0------------------|--------------0-----0-------|---2--4----2---0--------0---|------0--2-4----2-----------|-------------------1-2----2-|---1--------------------1-2-|----------------------------|----------------------------|----------------------------|----------------------------|----------------------------|----------------------------|
--------------------0------0-|-----------0-------------------|----0-------0--2-4-----2-----|---2--2-4----4--4-2-0--------0-|------2-1--------------------|----------------------1--1-2---|-----------------------------|-------------------------------|-----------------------------|-------------------------------|-----------------------------|-------------------------------|
-------------------0-2-0--------|--------------------4--3-4--5-4-|-----------2--2--4-------4-2----|--------0---------2-------------|---2---1---------------------1--|---1-2----2---1-----------------|--------------------------------|--------------------------------|--------------------------------|--------------------------------|--------------------------------|--------------------------------|
-----4----------0----------4-3-|---4-0--4----4-----------0------|---5------4-3-4---------2------|----------4------4--3-4---------|--------------------2----------|---------------1-------------2--|--------6----------------------|--------------------------------|-------------------------------|--------------------------------|-------------------------------|--------------------------------|
-------------------||-------------------||-------------------||-------------------||-------------------||-------------------||
Tap to rate this tab
 
# A B C D E F G H I J K L M N O P Q R S T U V W X Y Z