Misc Scales - Sweep Scales tab

this is basically a load of sweep scales that i happen to know, and i know it is 
hard to find them so here you go look no further...
unless you want more.


e|---------------12-15/19\15-12-----------------|B|-------------12--------------12---------------|G|-----------12------------------12-------------|D|---------14----------------------14-----------|A|-------14--------------------------14---------|E|--12h15------------------------------15-------|
e|--14p10--------------10h14p10------10h14/17p14----------14--|B|-------12----------12--------12--12-----------15------15----|G|---------11------11------------11---------------16--16------|D|-----------12--12---------------------------------16--------|A|-------------14---------------------------------------------|E|------------------------------------------------------------|
e|-------15h19p15----------15h19p15-----|B|-----16--------16------16--------16---|G|---17------------17--17------------17-|D|-17----------------17-----------------|A|--------------------------------------|E|--------------------------------------|
|-------------12h16p12----------------------12h17p12--------||----------14----------14----------------14----------14-----||-------13----------------13----------13----------------14--||----14----------------------14----14-----------------------||-16----------------------------16--------------------------||-----------------------------------------------------------|
|-9p5-------5-12p9---------9-17p12----------12-16b==r---------------||-----7---7--------10---10---------14----14-----------17-14-17bb~==-||-------6-------------11--------------14----------------------------||-------------------------------------------------------------------||-------------------------------------------------------------------||-------------------------------------------------------------------|
|---------------9h14p9---------------------------9h14p9-------------||------------10--------10---------------------10--------10----------||---------11--------------11---------------11--------------11-------||------11--------------------11---------11--------------------11----||-9h12--------------------------12p9h12--------------------------12-||-------------------------------------------------------------------|
|----------------12h17p12----------------------------12h16p12-------------||-------------14----------14----------------------14----------14----------||----------14----------------14----------------13----------------13-------||-------14----------------------14----------14----------------------14----||-12h16----------------------------16p11h16----------------------------16-||-------------------------------------------------------------------------|
|-9p5-------5-12p9---------9-12h17p12----------12-16b-16=-pb17r16-14-17bb-||-----7---7--------10---10------------14----14----------------------------||-------6-------------11-----------------14-------------------------------||-------------------------------------------------------------------------||-------------------------------------------------------------------------||-------------------------------------------------------------------------|
e|----------------------------8-12h17p12------12h17----|B|--------------------------10----------13--13---------|G|-------------------------9--------------14-----------|D|-----------------------10----------------------------|A|--------------------12-------------------------------|E|-----------------------------------------------------|
T Te|--20p17p12------12h17-20p17p12--|B|----------13--13----------------|G|------------14------------------|D|--------------------------------|A|--------------------------------|E|--------------------------------|
|-17-21-17----------17----------17-21-17----------17-||---------19------19--19------19--------19------19---||-----------18--18------18--18------------18--18-----||-------------19----------19----------------19-------||----------------------------------------------------||----------------------------------------------------|
|------------15h19p15--------------||----------17--------17------------||--------16------------16----------||------17----------------17--------||-15h19--------------------19------||-----------------------------17---|
E|19-19-19-19-19-19-15-----------------------------|B|---------------------17--------------------------|G|------------------------16-----------------------|D|---------------------------14-13-----------------|A|---------------------------------14--------------|E|------------------------------------12~----------|
|-16----16----16---16---------------------16-||---17----17----17---17-----------------17---||-----18----18---------18-------------18-----||------------------------18---------18-------||--------------------------16-x-x-16---------||--------------------------------------------|
|-10-17-15-13----------------------------8-10-||------------17-15-13---------------10-11-----||--------------------15-14-----10-12----------||-------------------------12-14---------------||---------------------------------------------||---------------------------------------------|
|-14-----17p14------14-17p14------14-17p14--17p14--------------------14-||-------------15--15--------15--15--------15-----15----------------15---||---------------14------------14-------------------14------------14-----||----------------------------------------------------16--------16-------||------------------------------------------------------17-14h17---------||-----------------------------------------------------------------------|
|-13p10------10-13p10------10-13p10--13p10--------------------10--||------11--11--------11--11--------11-----11----------------11----||--------10------------10-------------------10------------10------||---------------------------------------------12--------12--------||-----------------------------------------------13-10h13----------||-----------------------------------------------------------------|
|-14-17p14------14-17p14------14-17p14--17p14--------------------14-||---------15--15--------15--15--------15-----15----------------15---||-----------14------------14-------------------14------------14-----||------------------------------------------------16--------16-------||--------------------------------------------------17-14h17---------||-------------------------------------------------------------------|
|-13p10--------------------10-15p12--------------------12--||------11----------------11--------13----------------13----||--------10------------10------------12------------12------||----------12--------12----------------14--------14--------||------------13-10h13--------------------15-12h15----------||----------------------------------------------------------|
|-17p14------14-17p14--------------------------14-17p14--17p14---||------15--15--------15----15----------------15--------15-----15-||--------14------------14----14------------14--------------------||------------------------16----16--------16----------------------||--------------------------------17-14h17------------------------||----------------------------------------------------------------|
|-18p15-------15-18p15----------------------------------------------------||------17--17---------17--17-13-17p13------13-18p13------13-17p13---------||--------17-------------17-----------14--14--------14--14--------14--14\--||--------------------------------------15------------15------------15-----||-------------------------------------------------------------------------||-------------------------------------------------------------------------|
|---------16-21-16------------16-21-16-14---||-----------------17---------------------14-||-------18----------18------18--------------||-----18------------------18----------------||---19------------------19------------------||-21------------------21--------------------|
7 string sweeps|-----------------------------------|-----------16--------------12-19-14---||--------14----------------17-------|---------16--16----------12--------16-||---------x--------------16--16-----|-------13------13------13-----------16||-------11-11----------14------14---|-----13----------13--13---------------||-----11-----11--------x--------x---|---14--------------14-----------------||---12---------12-12-16----------16-|-16-----------------------------------||-14--------------------------------|--------------------------------------|
Tap to rate this tab
 
# A B C D E F G H I J K L M N O P Q R S T U V W X Y Z