Misc Scales – Natural Scales And C Arpeggios tab

E||--------------------------|--------------------0--1--|B||--------------------------|-----------0--1--3--------|G||--------------------------|-----0--2-----------------|D||--------------------0--2--|--3-----------------------|A||-----------0--2--3--------|--------------------------|E||--0--1--3-----------------|--------------------------|
--0-----------------------|--------------------------|-----3--1--0--------------|--------------------------|--------------2--0--------|--------------------------|--------------------3--2--|--0-----------------------|--------------------------|-----3--2--0--------------|--------------------------|--------------3--1--0--1--|
--------------------------|--------------0--1--3--1--|--------------------------|-----0--1--3--------------|-----------------------0--|--2-----------------------|--------------0--2--3-----|--------------------------|-----0--2--3--------------|--------------------------|--3-----------------------|--------------------------|
--0-----------------------|--------------------------|-----3--1--0--------------|--------------------------|--------------2--0--------|--------------------------|--------------------3--2--|--0-----------------------|--------------------------|-----3--2--0--------------|--------------------------|--------------3--1--0--1--|
--------------------------|---------------------|-----------------0----|--------------------------|---------------------|------------1----1----|--------------------------|--2--4--5------------|-------0----0----0----|-----------------2--3--5--|---------------------|--2----2----2---------|--------2--3--5-----------|---------------------|--3----3--------------|--3--5--------------------|---------------------|--3-------------------|
--0-------------------|-----------------3----|--3----0--------------|--1----1--------------|------------5----5----|--5----1----1---------|--0----0----0---------|-------5----5----5----|--5----0----0----0----|-------2----2----2----|--5----5----5---------|------------2----2----|------------3----3----|--7----7--------------|-----------------3----|-----------------3----|--8-------------------|----------------------|
--------------------8----|--8----3----0---------|--------------8-----8----|--8----5----1----1----|--------9-----9-----9----|--9----5----0----0----|--10----10----10---------|-----------------2----|--10----10---------------|----------------------|--12---------------------|----------------------|
--------------------------|-----------0--0-----------|--------------------------|--1-----1--------1-----1--|-----------------0-----0--|-----0--------------0-----|--------2-----2-----2-----|--------------------------|-----3-----3--------------|--------------------------|--3-----------------------|--------------------------|
--------------------------|--------------------------|--------------------------|--------------------------|--0-----0-----------------|-----------------5-----5--|-----2-----2-----2--------|--------5-----5-----5-----|--------------3-----3-----|-----7-----7--------------|-----------------------3--|--8-----------------------|
-----------3--3-----------|--------------------------|--5-----5--------5-----5--|--------------------------|-----5--------------5-----|--5-----5-----------------|--------------------------|-----5-----5-----5--------|--------------------------|--------------7-----7-----|--------------------------|-----------------------8--|
--------------------------------|-----------8--8-----------|--------------------------------|--8-----8--------8-----8--|----------------------9------9--|-----9--------------9-----|----------10------10-----10-----|--------------------------|------10------10----------------|--------------------------|--12----------------------------|--------------------------|
--------------------------------|----------------------------||--------------------------------|----------------------------||--9------9----------------------|----------------------------||-----10-----10------10----------|----------------------------||----------------10------10------|----------------------------||----------------------------12--|--8-------------------------||
Please rate this tab:
x1.0