Misc Soundtrack – The Devils Rejects - Freebird tab

Intro Pt.1E--3------0--0----1--0-----3--2--0--2-|B--0------0--0----1--1-----3--3--3--3-| x2G--0------0--0----2--0-----2--2--2--2-|D--0------2--2----3--2-----0--0--0--0-|A--2------2--2----3--3----------------|E--3--2---0--0----1-------------------| G Em F C D
Intro Pt.2 **Use a Slide**E-------------------------------|B--3>8--7>8--7--8---------------|G-------------------------------|D-------------------------------|A-------------------------------|E-------------------------------|
G D/F#E--------------------------------------------------------------------------------|B--8>7>5>3>5>7--5>3------------6-6-6-5-------------------------------------------|G--------------------4--4>5-------------5-----------4-5--------------------------|D------------------------------------------5>0--2>5------------------------------|A--------------------------------------------------------------------------------|E--------------------------------------------------------------------------------| Em F C
E------------------------------------------------------------------|B--3>2>3------15>14---->15---7>8--7>8--7>8--8--8>7>5>0--5>3--------|G-------------------14--------------------------------------4-4>5--|D------------------------------------------------------------------|A------------------------------------------------------------------|E------------------------------------------------------------------| D G D/F# Em
E--------------------------------------------------------------------------------------|B-6-6-6-5----------------3>2>3---3>2---3---5>8-----------------------------------------|G---------5----------4-5-------------2-------------------------------------------------|D-----------5>0--2>5-------------------------------------------------------------------|A--------------------------------------------------------------------------------------|E--------------------------------------------------------------------------------------|
E--------------------------------------------------------|B-----------------------------3>5----5>3-----------------|G----------------------------------------4-4>5-----------|D--------------------------------------------------------|A--------------------------------------------------------|E--------------------------------------------------------| D/F# Em 1.If I leave here tom___orow 2.Bye Bye its been sweet love
E------------------------------------------------------------------------------|B-----------------------3>2>3>15----15>13-------14>15>8------------------------|G----------------4--5---------------------13>14--------------------------------|D-----------0>5----------------------------------------------------------------|A------------------------------------------------------------------------------|E------------------------------------------------------------------------------| F C D 1.Would you still remember me? 2.And though this feeling I cant change
E-----------------------------------|B-7>8-------------------------------|G-----------------------------------|D-----------------------------------|A-----------------------------------|E-----------------------------------| G D/F# 1.For I must be travelling on 2.Please Dont take it so
E--------------------------------------------|B--3>5-----5>3-------------------------------|G--------------4-4>5>4>5>0-------------------|D--------------------------------------------|A--------------------------------------------|E--------------------------------------------| Em 1. Now 2.badly
E----------------------------------------------------------|B---------------------------3>2>3>2>3>15-15>14>15>14>15>8--|G----------------------------------------------------------|D--------------------4--5----------------------------------|A---------------0>5----------------------------------------|E----------------------------------------------------------| F C D 1.Cause theres to many places i've got to see 2.The Lord knows I'm to blame
E--------------------------------------------------------------------------|B--7>8-------------------------3>5----5>3----------------------------------|G----------------------------------------4-4>5>4>5>0-----------------------|D--------------------------------------------------------------------------|A--------------------------------------------------------------------------|E--------------------------------------------------------------------------| G D/F# Em 1.But if I stay here with you girl 2.And if I stayed here with you now
E----------------------------------------------------------------------------------------|B-------------------3>2>3>15---15>14----15>14-15>14-14>15>8------------------------------|G-------------4-5--------------------14--------------------------------------------------|D---------0>5----------------------------------------------------------------------------|A----------------------------------------------------------------------------------------|E----------------------------------------------------------------------------------------| C1.Things just couldn't be the same2.Things just couldn't be the same
E-----------------------------------|B--7>8------------------------------|G-----------------------------------|D-----------------------------------|A-----------------------------------|E-----------------------------------| G D/F# 1.Cause i'm free as a bird 2.Cause I'm free as a bird
E--------------------------------------------------------------------|B---8>7>5>0----5>3-------------------------3>2>3----3>2>3>2>3>2>3>0--|G-------------------4-4>5-------------4-5----------------------------|D---------------------------------0>5--------------------------------|A--------------------------------------------------------------------|E--------------------------------------------------------------------| Em F C D 1.now, and this bird you cannon change oh 2.now and this bird you'll never change oh
E-----------------------------------------------------------------------------|B--3>6---6>5---------------------15>14----15>14----14>15----14>15----14>15----|G------------5--------5----------------14-------14------14-------14-------14--|D--------------5>0>5-----5>12-------------------------------------------------|A-----------------------------------------------------------------------------|E-----------------------------------------------------------------------------| F C D and this bird you cannot change.
E---------------------------------|B--14>15----14>15>8---------------|G--------14-----------------------|D---------------------------------|A---------------------------------|E---------------------------------|
E---------------------------------------------------------------------------------------|B--5>6--6>5---------------------------------------6>5-------------6>15------------------|G-----------5--------4-5>2----5>7---2>10--------------5--------5------------------------|D-------------5>0>5-------------------------------------5>0>5---------------------------|A---------------------------------------------------------------------------------------|E---------------------------------------------------------------------------------------| F C D F C And this bird you cannot change Lord knows I can't change
E----------------------------------------|B--6>5----------6>15>14>15>14>15>8-------|G------5------5--------------------- <--|Play this after "Lord knowsD--------5>05----------------------------| I cant change" when you play intro pt2A----------------------------------------| for the first time. Play this afterE----------------------------------------| "Lord Knows I cant change" after you D played intro pt2 for the second time.
|
E-------------------------------------------------------- --------|B----14>15-----14>15----14>15----14>15------12>15>8--------------------------|G-14--------14-------14-------14-------14---------------- --------|D-------------------------------------------------------- <-----------------|A----------------------------------------------------------------------------|E----------------------------------------------------------------------------| x2
E----------------------------------------------------------------------|B---5>6--6>5------------------3>2>3>2--3--2--3--2-3--2-3-2--3-2-3-2>8--|G------------5--------4--5---------------------------------------------|D--------------5>0>5---------------------------------------------------|A----------------------------------------------------------------------|E----------------------------------------------------------------------| F C D Lord help me I can't change_________________________________
E------------------------------------------------------------------------------|B-3--3--3--3--3--3--3--3--5--5--5--5--5--5--5--5--5--5--5--5--5--5--5--5--5--5-|G-3--3--3--3--3--3--3--3--5--5--5--5--5--5--5--5--5--5--5--5--5--5--5--5--5--5-|D-3--3--3--3--3--3--3--3--5--5--5--5--5--5--5--5--5--5--5--5--5--5--5--5--5--5-|A-1--1--1--1--1--1--1--1--3--3--3--3--3--3--3--3--3--3--3--3--3--3--3--3--3--3-|E------------------------------------------------------------------------------| Bb C Lord_________ I can't change_____________ won't you
E--3--3--3--3--3--3--3--3---------------------------------------------------|B--3--3--3--3--3--3--3--3--3--3--3--3--3--3--3--3---5--5--5--5--5--5--5--5--|G--4--4--4--4--4--4--4--4--3--3--3--3--3--3--3--3---5--5--5--5--5--5--5--5--|D--5--5--5--5--5--5--5--5--3--3--3--3--3--3--3--3---5--5--5--5--5--5--5--5--|A--5--5--5--5--5--5--5--5--1--1--1--1--1--1--1--1---3--3--3--3--3--3--3--3--|E--3--3--3--3--3--3--3--3---------------------------------------------------| G Bb C
Solo
------------------|------------------|--------------------------------|------------------|------------------|--3------------3---3---3-3------|------------------|------------------|--4------------3-x-3-x-3-3--x-x-|------------------|------------------|--5--x-------x-3-x-3-x-3-3--x-x-|------------------|------------------|--5--x---0-2-x-1-x-1-x-1-1--x-x-|------------------|------------------|--3--x-3-----x------------------|
-----------------------------|--------------------------------|--5--x-----------------------|--3------------3---3---3-3------|--5--x-----------------------|--4------------3-x-3-x-3-3--x-x-|--5--x-----5----5----5----5--|--5--x-------x-3-x-3-x-3-3--x-x-|--3----5h7----7----7----7----|--5--x---0-2-x-1-x-1-x-1-1--x-x-|-----------------------------|--3--x-3-----x------------------|
-----------------------------15----|------------------------------------------|--5----5-5----5---5---5---------15-|--18b18b18b-18b-18-15-18-18r-15-18b-18-15-|--5--x-5-5--x-5-x-5-x-5-x-15-------|------------------------------------------|--5--x-5-5--x-5-x-5-x-5-x----------|------------------------------------------|--3--x-3-3--x-3-x-3-x-3-x----------|------------------------------------------|-----------------------------------|------------------------------------------|
---------18-----18-----18----18-------15----|--18b18b----18b----18b----18b---18b------15-|-----------------------------------15-------|--------------------------------------------|--------------------------------------------|--------------------------------------------|
------------------------------------------|--18b18b18b-18b-18-15-18-18r-15-18b-18-15-|------------------------------------------|------------------------------------------|------------------------------------------|------------------------------------------|
---------18-----18-----18----18----18----18-|--18b18b----18b----18b----18b---18b---18b---|--------------------------------------------|--------------------------------------------|--------------------------------------------|--------------------------------------------|
-----18----18----18----18----18----18----18----18-|--18~---18~---18~---18~---18~---18~---18~---18~---|--------------------------------------------------|--------------------------------------------------|--------------------------------------------------|--------------------------------------------------|
-----18----18----18----18----18----18-----------|--18~---18~---18~---18~---18~---18~---18~-18-15-|------------------------------------------------|------------------------------------------------|------------------------------------------------|------------------------------------------------|
--------------------------------------------------------------------------------|--18-15-18-18-15-18-18b15-18-18-15-18-18b15-18-18-15-18-18b15-18-18-15-18-18b15-|--------------------------------------------------------------------------------|--------------------------------------------------------------------------------|--------------------------------------------------------------------------------|--------------------------------------------------------------------------------|
------------------------------------------------------------------------------|--15-18-18-15-18-18-15-18-18b15-18-18b15-18-18r15-18-18r15-18-18r15-18-18r15--|------------------------------------------------------------------------------|------------------------------------------------------------------------------|------------------------------------------------------------------------------|------------------------------------------------------------------------------|
--13b-13b-13b-------------------------------------------------------------|--------------18p15----15-18p15----15-18p15----15-18p15----15-18p15----15-|--------------------17----------17----------17----------17----------17----|--------------------------------------------------------------------------|--------------------------------------------------------------------------|--------------------------------------------------------------------------|
---------------------------------------------------------------------------------|--18p15----15-18p15----15-18p15----15-18p15----15-18p15----15-18p15----15--------|--------17----------17----------17----------17----------17----------17----17--15-|---------------------------------------------------------------------------------|---------------------------------------------------------------------------------|---------------------------------------------------------------------------------|
--------------------------------------------------------------------------|-----------------------------------------------------------------18----18-|-----15~---------15~---15-17p15-17p15----15-17p15----15-17p15-17b---17b---|--17----17p15-17----17----------------17----------17----------------------|--------------------------------------------------------------------------|--------------------------------------------------------------------------|
--------------------------------------------------|-----18----18----18----18----18----18----18----18-|--17b---17b---17b---17b---17b---17b---17r---17r---|--------------------------------------------------|--------------------------------------------------|--------------------------------------------------|
-----------------------------------------------------------------|-----18----18----18----18----18----18----18----18----18----18----|--17r---17r---17r---17r---17r---17r---17r---17r---17r---17r---17r|-----------------------------------------------------------------|-----------------------------------------------------------------|-----------------------------------------------------------------|
-----------------------------------------------------|--18-18-18-18-18-18-18-18-18-18-18-18-18-18----------|--17-17b17b17-17b17b17-17b17b17-17b17b17-17b---------|--------------------------------------------17p15----|--------------------------------------------------17-|-----------------------------------------------------|
-----------------------------------------------------------------|-----------------------------------------------------------------|--15----------15----------15----------15----------15----------15-|-----17p15-------17p15-------17p15-------17p15-------17p15-------|-----------17----------17----------17----------17----------17----|-----------------------------------------------------------------|
----------------------------------------------------------------------------|----------------------------------------------------------------------------|------------------------------------15--------------------------------------|--17--17----15-17p15-17p15-17p15-------17--17----15-17p15-17p15-17p15----15-|---------17----------------------17-----------17----------------------17----|----------------------------------------------------------------------------|
----------------------------------------------------------------------------|----------------------------------------------------------------------------|----------------------------------------------------------------------------|--17--17----15-17p15-17p15-17p15----15-17--17----15-17p15-17p15-17p15----15-|---------17----------------------17-----------17----------------------17----|----------------------------------------------------------------------------|
---------------------------------------------------|---------------------------------------------------|------------15-----------15-----------15--------17b|--17--15-------17--15-------17--15-------17--15----|---------17-----------17-----------17--------------|---------------------------------------------------|
--------------------------------------------------------------------------------|--------------------------------------------------------------------------------|--17-15-------17b17-15-------17b17-15-------17b17-15-------17b17-15-------17b17-|--------17-15----------17-15----------17-15----------17-15----------17-15-------|--------------------------------------------------------------------------------|--------------------------------------------------------------------------------|
---------------------------------------------------------------|---------------------------------------------------------------|--------17b17-15-------17b17-15-------17b17b-17b17-17-15-15-15-|--17-15----------17-15----------17-15--------------------------|---------------------------------------------------------------|---------------------------------------------------------------|
--------------------------------------------|--------------------------------------------|--------------------------------------------|--17----17----15b-15----15-15r----15b-15----|-----------17--------17--------17--------17-|-----19-------------------------------------|
---------------------------------------------|---------------------------------------------|---------15-----15-----15----15--------------|--15b15b----15b----15b----15b---15b----17----|------------------------------------------17-|------------------------------------18-------|
------------------------------------------|------------------------------------------|------------------------------------------|--15-15b15b-15b-15----15-15r----15b-15----|-------------------17--------17--------17-|------------------------------------------|
--------------------------------------|--------------------------------------|---------15-----15--------------------|--15b15b----15b----15b-15b-15b-15b-15-|--------------------------------------|--------------------------------------|
------------------------------------------|------------------------------------------|-------------------15--------15--------15-|--17--17-15-17--17-15-17--17-15-17--17-15-|------------------------------------------|------------------------------------------|
----------------------------------------|----------------------------------------|---------15--------15-------------------|--17--17-15-17--17-15-17-17b-17b-17b-15-|----------------------------------------|----------------------------------------|
--------------------------------------------------------|--------------------------------------------------------|---------15--------15-16-17-17r15--------15-16-17-17r15-|--17--17-15-17--17----------------17--17----------------|--------------------------------------------------------|--------------------------------------------------------|
----------------------------------------|----------------------------------------|----------------------------------------|--17--17-15-17--17-15-17-17b-17b-17b-14-|----------------------------------------|----------------------------------------|
-------------------------------------------|-------------------------------------------|-----------------------------------15b-15--|--17-----17--17-19p17----17-----17---------|------19--------------19-----19------------|-------------------------------------------|
---------------------------------------3-6---|-------------------------------------6-----8-|-----15--------------------------------------|--17----17-15-17-15b-15b-15b-15b-15b---------|---------------------------------------------|---------------------------------------------|
--5p3---3-6p3-5p3---3-6p3-5p3---3-6p3-5p3---3-6p3-5p3---3-6p3-5p3-|------6-----------6-----------6-----------6-----------6-----------|------------------------------------------------------------------|------------------------------------------------------------------|------------------------------------------------------------------|------------------------------------------------------------------|
----3-6p3-5p3---3-6p3-5p3---3-6p3-5p3---3-6p3-5p3/----15-|--6-----------6-----------6-----------6------------------|---------------------------------------------------------|---------------------------------------------------------|---------------------------------------------------------|---------------------------------------------------------|
-----------15----------15----------15----------15----------15----------15-------|--18p15-------18p15-------18p15-------18p15-------18p15-------18p15-------18p15-|--------17----------17----------17----------17----------17----------17----------|--------------------------------------------------------------------------------|--------------------------------------------------------------------------------|--------------------------------------------------------------------------------|
-----------15----------15----------15----------15----------15----------15-------|--18p15-------18p15-------18p15-------18p15-------18p15-------18p15-------18p15-|--------17----------17----------17----------17----------17----------17----------|--------------------------------------------------------------------------------|--------------------------------------------------------------------------------|--------------------------------------------------------------------------------|
-----------15----------15----------15----------15----------15----------15-------|--18p15-------18p15-------18p15-------18p15-------18p15-------18p15-------18p15-|--------17----------17----------17----------17----------17----------17----------|--------------------------------------------------------------------------------|--------------------------------------------------------------------------------|--------------------------------------------------------------------------------|
-----------15----------15----------15----------15----------15----------15-------|--18p15-------18p15-------18p15-------18p15-------18p15-------18p15-------18p15-|--------17----------17----------17----------17----------17----------17----------|--------------------------------------------------------------------------------|--------------------------------------------------------------------------------|--------------------------------------------------------------------------------|
-----18p15----18p15----18p15----18p15----18p15----18p15----18p15----18p15----18--|p--15-------15-------15-------15-------15-------15-------15-------15-------15-----|---------------------------------------------------------------------------------|---------------------------------------------------------------------------------|---------------------------------------------------------------------------------|---------------------------------------------------------------------------------|
---------------------------------------------------------------------------------|-----18p15----18p15----18p15----18p15----18p15----18p15----18p15----18p15----18--|p--15-------15-------15-------15-------15-------15-------15-------15-------15-----|---------------------------------------------------------------------------------|---------------------------------------------------------------------------------|---------------------------------------------------------------------------------|
--13b--13b--13b13b13r-13-13-13----------|-------------------------------15-15-15-|----------------------------------------|----------------------------------------|----------------------------------------|----------------------------------------|
----------------------------------------|--13b--13b--13b13b13r-13-13-13-11-11-11-|----------------------------------------|----------------------------------------|----------------------------------------|----------------------------------------|
--------6---6---6-----6-------6---6---6-----6-|--8--8----8---8-8-6-----8--8----8---8-8-6-----|--------------------7---------------------7---|----------------------------------------------|----------------------------------------------|----------------------------------------------|
-----6-----6----6-----6----6-----6-------|----------------------------------|--8--8-6-----8--8-6-----8--8-6-----8-----|--8----8--8-10---8----8--8-10p8---|---------7----------7----------7-------9-|-----9---------9----9-----------9-|-----------------------------------------|----------------------------------|-----------------------------------------|----------------------------------|-----------------------------------------|----------------------------------|
-----------------------------------|---------------------------------|--8----8----8-10b-10b10b11b10b-8---|--8--10b-10b-10b---10b-10b-10b10b|-----9----9----------------------9-|---------------------------------|-----------------------------------|---------------------------------|-----------------------------------|---------------------------------|-----------------------------------|---------------------------------|
----------------------------------------|--10--10--10--10--10--10--10--10--|---10b10b10b-10b10b10b-10b10b10b---8-10-|--10b-10b-10b-10b-10b-10b-10b-10r-|---------------------------------9------|----------------------------------|----------------------------------------|----------------------------------|----------------------------------------|----------------------------------|----------------------------------------|----------------------------------|
--10--10-10--10-10---10-10--10-10--10-10-10-|--10--10--10--10--10--10--10--10--|--8------8---8--10p8----8------8------8--10-|--10b-10b-10b-10b-10b-10b-10b-10r-|------9--------------9------9------9--------|----------------------------------|--------------------------------------------|----------------------------------|--------------------------------------------|----------------------------------|--------------------------------------------|----------------------------------|
--10--10-10--10-10---10-10--10-10--10-10-10-|--10--10--10--10--10--10--10--10--|--8------8---8--10p8----8------8------8--10-|--10b-10b-10b-10b-10b-10b-10b-10b-|------9--------------9------9------9--------|----------------------------------|--------------------------------------------|----------------------------------|--------------------------------------------|----------------------------------|--------------------------------------------|----------------------------------|
--10--10--10--10--10--10--10--10--|--10b-10b-10b-10b-10b-10b-10b-10r-|----------------------------------|----------------------------------|----------------------------------|----------------------------------|
--10--10-10--10-10---10-10--10-10--10-10---10-|--8------8---8--10p8----8------8---8--10p8----|------9--------------9------9--------------9--|----------------------------------------------|----------------------------------------------|----------------------------------------------|
--10--10-10--10-10---10-10--10-10--10-10-13-|--8------8---8--10p8----8------8------8-----|------9--------------9------9------9--------|--------------------------------------------|--------------------------------------------|--------------------------------------------|
------13-----13-----13-----13-----13----|--13b----13b----13b----13b----13b----13b|----------------------------------------|----------------------------------------|----------------------------------------|----------------------------------------|
---13----13----13----13----13----13----13------|------13b---13b---13b---13b---13b---13b---13bx-|---------------------------------------------x-|-----------------------------------------------|-----------------------------------------------|-----------------------------------------------|
------18-----18-----18-----18-----18----|--18b----18b----18b----18b----18b----18b|----------------------------------------|----------------------------------------|----------------------------------------|----------------------------------------|
---18----18----18----18----18----18-----22--|------18b---18b---18b---18b---18b---18b-18b-|--------------------------------------------|--------------------------------------------|--------------------------------------------|--------------------------------------------|
------22-----22-----22-----22-----22----|--22b----22b----22b----22b----22b----22b|----------------------------------------|----------------------------------------|----------------------------------------|----------------------------------------|
---22----22----22----22----22----22----22----22-|------22b---22b---22b---22b---22b---22b---22b---|------------------------------------------------|------------------------------------------------|------------------------------------------------|------------------------------------------------|
-----22----22----22----22----22----22----22----22-|--22b---22b---22b---22b---22b---22b---22b---22b---|--------------------------------------------------|--------------------------------------------------|--------------------------------------------------|--------------------------------------------------|
-----22----22----22----22----22----22----22----22-22-22-22-22-22-22-22-22-22-22--|--22b---22b---22b---22b---22b---22b---22b---22b22b22b22b22b22b22b22b22b22b22b22b-|---------------------------------------------------------------------------------|---------------------------------------------------------------------------------|---------------------------------------------------------------------------------|---------------------------------------------------------------------------------|
---------------------------------------|---8b-13--11-8-11b-11-13-8-11-13-13b11-|---------------------------------------|---------------------------------------|---------------------------------------|---------------------------------------|
---------------------------------------15-|--13-8-11-13-11-8-13b8-11-13-11b-8--------|------------------------------------17----|------------------------------------------|------------------------------------------|------------------------------------------|
-----------15----------15----------15----------15----------15----------15-------|--18p15-------18p15-------18p15-------18p15-------18p15-------18p15-------18p15-|--------17----------17----------17----------17----------17----------17----------|--------------------------------------------------------------------------------|--------------------------------------------------------------------------------|--------------------------------------------------------------------------------|
----------------------------------------|--18b-18b-18r-18----18------------------|-----------------19-----19-17-19--17-16-|----------------------------------------|----------------------------------------|----------------------------------------|
---------------------------------------------------------------------------------|---------------------------------------------------------------------------------|--17--16----16-19p16----16-19p16----16-19p16----16-19p16----16-19p16----16-19p16-|---------17----------17----------17----------17----------17----------17----------|---------------------------------------------------------------------------------|---------------------------------------------------------------------------------|
--------------------------------------------------|--------------------------------------------------|--19b-19b-19r-19-19-19p17-17-17-17p16h17-16h17p16-|--------------------------------------------------|--------------------------------------------------|--------------------------------------------------|
--------------------------------------------------------------|--------------------------------------------------------------|--16/---4h7---4h7---4h7---4h7---4h7---4h7---4h7---4h7---4h7---|------5-----5-----5-----5-----5-----5-----5-----5-----5-----5-|--------------------------------------------------------------|--------------------------------------------------------------|
-------------------------------------------------------------|-------------------------------------------------------------|--4h7---4h7---4h7---4h7---4h7---4h7---4h7---4h7---4h7---4h7/-|------5-----5-----5-----5-----5-----5-----5-----5-----5------|-------------------------------------------------------------|-------------------------------------------------------------|
-------------------------------|-------------------------------|--8--8b-8r-8-8-8/5-5-5-5/3-3/1-|-------------------------------|-------------------------------|--5-4---5-4---5b-5--5-4-5-4----|-------------------------------|------5-----5---------------5/-|-------------------------------|-------------------------------|-------------------------------|-------------------------------|
----------------------------------|-----------------------------------|--8----8--8-10---8----8--8-10p8---|--8----8----8-10b-10b10b10b10b-8---|-----9---------9----9-----------9-|-----9----9----------------------9-|----------------------------------|-----------------------------------|----------------------------------|-----------------------------------|----------------------------------|-----------------------------------|
-------------------------------------|---------------------------------------|--8--10b-10b-10b-10b-10b10b-10b10b10b|---10b10b10b-10b10b10b-10-8---8---8-10-|-------------------------------------|----------------------------9---9------|-------------------------------------|---------------------------------------|-------------------------------------|---------------------------------------|-------------------------------------|---------------------------------------|
--10-10-10---10-10--10--10--10--10--|--10b10-10b--10r8---10--10--10--10r-|------------------------------------|------------------------------------|------------------------------------|------------------------------------|
--10--10-10--10-10---10-10--10-10--10-10-10-|--10--10--10--10--10--10--10--10--|--8------8---8--10p8----8------8------8--10-|--10b-10b-10b-10b-10r-10--10--10r-|------9--------------9------9------9--------|----------------------------------|--------------------------------------------|----------------------------------|--------------------------------------------|----------------------------------|--------------------------------------------|----------------------------------|
--10--10-10--10-10---10-10--10-10--10-10-10-|--10--10--10--10--10--10--10--10--|--8------8---8--10p8----8------8------8--10-|--10b-10b-10b-10b-10r-10--10--10r-|------9--------------9------9------9--------|----------------------------------|--------------------------------------------|----------------------------------|--------------------------------------------|----------------------------------|--------------------------------------------|----------------------------------|
--10--10-10--10-10---10-10--10-10--10-10-10-|--10------10------10------10------|--8------8---8--10p8----8------8------8--10-|--10b-----10b-----10b-----10b-----|------9--------------9------9------9--------|-------12------12------12------12-|--------------------------------------------|----------------------------------|--------------------------------------------|----------------------------------|--------------------------------------------|----------------------------------|
--10--10-10--10-10---10-10--10-10--10-10-10-|--10--10--10--10--10--10--10--10--|--8------8---8--10p8----8------8------8--10-|--10b-10b-10b-10b-10b-10b-10b-10r-|------9--------------9------9------9--------|----------------------------------|--------------------------------------------|----------------------------------|--------------------------------------------|----------------------------------|--------------------------------------------|----------------------------------|
--10--10-10--10-10---10-10--10-10--x-------|--8------8---8--10p8----8------8---x-15-18-|------9--------------9------9--------------|-------------------------------------------|-------------------------------------------|-------------------------------------------|
--15~-------15~-------15~-------15~-------|------15-18-----15-18-----15-18-----15-18-|------------------------------------------|------------------------------------------|------------------------------------------|------------------------------------------|
--15~-------15~--------------------------------|------15-18-----15-18-18b18b18b18~-18-15-15h18-|-----------------------------------------------|-----------------------------------------------|-----------------------------------------------|-----------------------------------------------|
---------------------------------------------------------------|--18b-18-15-18b18b18p15----18b18b18b18p15----18b18b18b18p15----|------------------------15~---------------15~---------------15~|---------------------------------------------------------------|---------------------------------------------------------------|---------------------------------------------------------------|
-------------------------------------------------------15----|--18b18b18b18p15----18b18b18b18p15----18b18b18r-18b-------15-|-----------------15----------------15---------------15-------|-------------------------------------------------------------|-------------------------------------------------------------|-------------------------------------------------------------|
--18p15----18p15----18p15----18p15----18p15----18p15----18p15----18p15----18p15-|--------15-------15-------15-------15-------15-------15-------15-------15-------|--------------------------------------------------------------------------------|--------------------------------------------------------------------------------|--------------------------------------------------------------------------------|--------------------------------------------------------------------------------|
--18p15----18p15----18p15----18p15----18p15----18b-18b-18b-18-15-|--------15-------15-------15-------15-------15-------------------|-----------------------------------------------------------------|-----------------------------------------------------------------|-----------------------------------------------------------------|-----------------------------------------------------------------|
------------------------------------------------------------------------|--18-18b18-18~-18b18-15-18p15----18p15----18p15----18p15----18p15----18p|------------------------------15-------15-------15-------15-------15----|------------------------------------------------------------------------|------------------------------------------------------------------------|------------------------------------------------------------------------|
--------------------------------------------------------------------------------|--15----18p15----18p15----18p15----18p15----18p15----18p15----18p15----18p15----|-----15-------15-------15-------15-------15-------15-------15-------15-------15-|--------------------------------------------------------------------------------|--------------------------------------------------------------------------------|--------------------------------------------------------------------------------|
-------------------15-15-15-15----------|------------------------------|--18b--18b-18b18r--18-18-18-18----------|------------------------8-----|-------------------------------19-19-19-|--17b17b17r-15r---12r---10r---|----------------------------------------|------------------------------|----------------------------------------|------------------------------|----------------------------------------|------------------------------|
-----------------------|---------------------------|--6----5----3---3---3--|--3--3--3--3--3--3--3--3-3/|--8r---7r---5b--5b--5b-|--5b-5b-5b-5b-5b-5b-5b-5b--|-----------------------|---------------------------|-----------------------|---------------------------|-----------------------|---------------------------|
----------------------------------------------|--11-11-13/3/11-10-13/3/11-11-13/3/11-10-13/3/|----------------------------------------------|----------------------------------------------|----------------------------------------------|----------------------------------------------|
------------------------------------------|--11-11-13/3/11-10-13/3/11-11-13b-13r-11--|------------------------------------------|------------------------------------------|------------------------------------------|------------------------------------------|
-------------------------------------------|-----------------------------------|-------------------------------------------|--------8--8-10---8-10---8----8-10-|--12--12--12--12--10-10-10--10-------------|------9---------9------9----9------|-------------------------------12p10h12-10-|-----------------------------------|-------------------------------------------|--10/------------------------------|-------------------------------------------|-----------------------------------|
--10--10--10--10--10--10--10--10--|--10--10--10--10--10--10--10--10---|--10b-10b-10b-10b-10b-10b-10b-10b-|--10b-------------10b------------8-|----------------------------------|-----------------------------------|----------------------------------|-----------------------------------|----------------------------------|-----------------------------------|----------------------------------|-----------------------------------|
--10--10----10---10--10---10-10----------|--10b-10~---10r8-10--8----8--10p8h10p8---|------------------------9--------------9-|-----------------------------------------|-----------------------------------------|-----------------------------------------|
--10--10-10--10-10---10-10--10-10----------|--8------8---8--10p8----8------8--------15-|------9--------------9------9------8/15----|-------------------------------------------|-------------------------------------------|-------------------------------------------|
------------------------------------------|--18b-15-18-------------------------------|------------17r-15-17~--15----17-15-------|---------------------------17-------17-15-|------------------------------------------|------------------------------------------|
----------------------------------------------------|----------------------------------------------------|----------------------------------------------------|----------------------------------------------------|--17p15----15----------------------15------------5--|--------18----15-18-15-15-18-15-15----15-17b-15/-5--|
------------------------------|--------------------------------|------------------------------|--------------------------------|--------------3-x-3-x-3-3---x-|--5--x-5-5--x-5-5-5-5-5-5-5-5-5-|--5--x-5-5--x-3-x-3-x-3-3---x-|--5--x-5-5--x-5-5-5-5-5-5-5-5-5-|--5--x-5-5--x-1-x-1-x-1-1---x-|--3--x-3-3--x-3-3-3-3-3-3-3-3-3-|--3--x-3-3--x-----------------|--------------------------------|
------------------------------|--------------------------------|------------------------------|--------------------------------|--------------3-x-3-x-3-3---x-|--5--x-5-5--x-5-5-5-5-5-5-5-5-5-|--5--x-5-5--x-3-x-3-x-3-3---x-|--5--x-5-5--x-5-5-5-5-5-5-5-5-5-|--5--x-5-5--x-1-x-1-x-1-1---x-|--3--x-3-3--x-3-3-3-3-3-3-3-3-3-|--3--x-3-3--x-----------------|--------------------------------|
-----------------------------------------------|-----------------------------------------------|--4----4-4-4-4-4-4-4-4-4-4-4-4-4-4-4-4-4-4-4-4-|--5----5-5-5-5-5-5-5-5-5-5-5-5-5-5-5-5-5-5-5-5-|--5----5-5-5-5-5-5-5-5-5-5-5-5-5-5-5-5-5-5-5-5-|--3----3-3-3-3-3-3-3-3-3-3-3-3-3-3-3-3-3-3-3-3-|
------------------------------------------------------------------|--3-------|------------------------------------------------------------------|--3-------|--4-4-4-4-4-4-4-4-4-4-4-4-4-4-4-4-4-4-4-4-4-4-4-4-4-4-4-4-4-4-4-4-|--4-------|--5-5-5-5-5-5-5-5-5-5-5-5-5-5-5-5-5-5-5-5-5-5-5-5-5-5-5-5-5-5-5-5-|--5-------|--5-5-5-5-5-5-5-5-5-5-5-5-5-5-5-5-5-5-5-5-5-5-5-5-5-5-5-5-5-5-5-5-|--5-------|--3-3-3-3-3-3-3-3-3-3-3-3-3-3-3-3-3-3-3-3-3-3-3-3-3-3-3-3-3-3-3-3-|--3-------|
---------------------------------------------------------|---------------------------------------------------------|--7--7-7-7-7-7-7-7-7-7-7-7-7-7-7-7-7-7-7-7-7-7-7-7-7-7-7-|--8--8-8-8-8-8-8-8-8-8-8-8-8-8-8-8-8-8-8-8-8-8-8-8-8-8-8-|--8--8-8-8-8-8-8-8-8-8-8-8-8-8-8-8-8-8-8-8-8-8-8-8-8-8-8-|--6--6-6-6-6-6-6-6-6-6-6-6-6-6-6-6-6-6-6-6-6-6-6-6-6-6-6-|
------------------------------------------------------------------|------------------------------------------------------------------|--7-7-7-7-7-7-7-7-7-7-7-7-7-7-7-7-7-7-7-7-7-7-7-7-7-7-7-7-7-7-7-7-|--8-8-8-8-8-8-8-8-8-8-8-8-8-8-8-8-8-8-8-8-8-8-8-8-8-8-8-8-8-8-8-8-|--8-8-8-8-8-8-8-8-8-8-8-8-8-8-8-8-8-8-8-8-8-8-8-8-8-8-8-8-8-8-8-8-|--6-6-6-6-6-6-6-6-6-6-6-6-6-6-6-6-6-6-6-6-6-6-6-6-6-6-6-6-6-6-6-6-|
------------------------------------------------------------------|--6-------|------------------------------------------------------------------|--6-------|--7-7-7-7-7-7-7-7-7-7-7-7-7-7-7-7-7-7-7-7-7-7-7-7-7-7-7-7-7-7-7-7-|--7-------|--8-8-8-8-8-8-8-8-8-8-8-8-8-8-8-8-8-8-8-8-8-8-8-8-8-8-8-8-8-8-8-8-|--8-------|--8-8-8-8-8-8-8-8-8-8-8-8-8-8-8-8-8-8-8-8-8-8-8-8-8-8-8-8-8-8-8-8-|--8-------|--6-6-6-6-6-6-6-6-6-6-6-6-6-6-6-6-6-6-6-6-6-6-6-6-6-6-6-6-6-6-6-6-|--6-------|
--------------------------------------------------------------------------------|--------------------------------------------------------------------------------|--9--9--9--9--9--9--9--9--9--9--9--9--9--9--9--9--9--9--9--9--9--9--9--9--9--9--|--10-10-10-10-10-10-10-10-10-10-10-10-10-10-10-10-10-10-10-10-10-10-10-10-10-10-|--10-10-10-10-10-10-10-10-10-10-10-10-10-10-10-10-10-10-10-10-10-10-10-10-10-10-|--8--8--8--8--8--8--8--8--8--8--8--8--8--8--8--8--8--8--8--8--8--8--8--8--8--8--|
--------------------------------------------------------------------------------|--------------------------------------------------------------------------------|--9--9--9--9--9--9--9--9--9--9--9--9--9--9--9--9--9--9--9--9--9--9--9--9--9--9--|--10-10-10-10-10-10-10-10-10-10-10-10-10-10-10-10-10-10-10-10-10-10-10-10-10-10-|--10-10-10-10-10-10-10-10-10-10-10-10-10-10-10-10-10-10-10-10-10-10-10-10-10-10-|--8--8--8--8--8--8--8--8--8--8--8--8--8--8--8--8--8--8--8--8--8--8--8--8--8--8--|
--------------------------------------------------------------------------------|--------------------------------------------------------------------------------|--9--9--9--9--9--9--9--9--9--9--9--9--9--9--9--9--9--9--9--9--9--9--9--9--9--9--|--10-10-10-10-10-10-10-10-10-10-10-10-10-10-10-10-10-10-10-10-10-10-10-10-10-10-|--10-10-10-10-10-10-10-10-10-10-10-10-10-10-10-10-10-10-10-10-10-10-10-10-10-10-|--8--8--8--8--8--8--8--8--8--8--8--8--8--8--8--8--8--8--8--8--8--8--8--8--8--8--|
--------------------------------------------------------------------------------|--------------------------------------------------------------------------------|--9--9--9--9--9--9--9--9--9--9--9--9--9--9--9--9--9--9--9--9--9--9--9--9--9--9--|--10-10-10-10-10-10-10-10-10-10-10-10-10-10-10-10-10-10-10-10-10-10-10-10-10-10-|--10-10-10-10-10-10-10-10-10-10-10-10-10-10-10-10-10-10-10-10-10-10-10-10-10-10-|--8--8--8--8--8--8--8--8--8--8--8--8--8--8--8--8--8--8--8--8--8--8--8--8--8--8--|
-----------|---------------------------------------------------|-----------|---------------------------------------------------|--9--------|---------------------------------------------------|--10-------|---------------------------12-15p13p12----12-13-15-|--10-------|---------------------13-15-------------15----------|--8--------|--15~-------------15-------------------------------|
-------------------------------------------------------------------------|-------------------------------------------------------------------------|-------------------------------------------------------------------------|--15~-------15--15p13p12----12-13-15-13h15p13p12-------12h13p12----------|-------------------------15----------------------15p13----------15p13p12-|-------------------------------------------------------------------------|
------------------------------------------------------------------------|------------------------------------------------------------------------|------------------------------------------------------------------------|------------------------------------------------------12-13-12----------|--12h13p12-----------------------12-13-12----13-13-15----------15-13----|-----------15p13p12-----12-13-15----------15-------------------------13-|
----------------------|----------------------|----------------------|----------------------|----------------14----|--15b-----------------|
----------------------------------------------------------|----------------------------------------------------------|----------------------------------------------------------|-------------17p15----------------------------------------|----------17-------17p15p13----15p13----15p13----15p13----|----------------------------15-------15-------15-------15-|
-------------------------|-------------------------|-------------------------|-------------------------|--13b--13b13b-------14---|-------------------------|
----------------------------------------------------------------|------3/--15-15-15-15-15-15-15-15-15-15-15-15-15-15-15-15-15-15-|------4/--15-16-16-16-16-16-16-16-16-16-16-16-16-16-16-16-16-16-|----------------------------------------------------------------|----------------------------------------------------------------|----------------------------------------------------------------|
--15-15-15-15-15-15-15-15-15-15-15-15-15-15-15-15-15-15-15-15-15-15-15-15-15-15-|--15-15-15-15-15-15-15-15-15-15-15-15-15-15-15-15-15-15-15-15-15-15-15-15-15-15-|--16-16-16-16-16-16-16-16-16-16-16-16-16-16-16-16-16-16-16-16-16-16-16-16-16-16-|--------------------------------------------------------------------------------|--------------------------------------------------------------------------------|--------------------------------------------------------------------------------|
--15-15-15-15-15-15-15-15-15-15-15-15-15-15-15-15-15-15-15-15-15-15-15-15-15-15-|--15-15-15-15-15-15-15-15-15-15-15-15-15-15-15-15-15-15-15-15-15-15-15-15-15-15-|--16-16-16-16-16-16-16-16-16-16-16-16-16-16-16-16-16-16-16-16-16-16-16-16-16-16-|--------------------------------------------------------------------------------|--------------------------------------------------------------------------------|--------------------------------------------------------------------------------|
--15-15-15-15-15-15-15-15-15-15-15-15-15-15-15-15-15-15-15-15-15-15-15-15-15-15-|--15-15-15-15-15-15-15-15-15-15-15-15-15-15-15-15-15-15-15-15-15-15-15-15-15-15-|--16-16-16-16-16-16-16-16-16-16-16-16-16-16-16-16-16-16-16-16-16-16-16-16-16-16-|--------------------------------------------------------------------------------|--------------------------------------------------------------------------------|--------------------------------------------------------------------------------|
--15-15-15-15-15-15-15-15-15-15-15-15-15-15-15-15-15-15-15-15-15-15-15-15-15-15-|--15-15-15-15-15-15-15-15-15-15-15-15-15-15-15-15-15-15-15-15-15-15-15-15-15-15-|--16-16-16-16-16-16-16-16-16-16-16-16-16-16-16-16-16-16-16-16-16-16-16-16-16-16-|--------------------------------------------------------------------------------|--------------------------------------------------------------------------------|--------------------------------------------------------------------------------|
--3-------|--------------------|------------------||--3-------|--------------------|------------------||--4-------|--------------------|------------------||--5-------|--5----5/-----------|------------------||--5-------|--5----5/-----------|------------------||--3-------|--3----3/-----------|------------------||
Please rate this tab:
x1.0