Misc Soundtrack - Cannibal Holocaust Main Theme tab

Song: Cannibal Holocaust Main Theme
Artist: A guy on youtube who's name I've forgotten.
Tabber: Tye1989

This the main theme to Cannibal Holocaust, the backing guitar is already on
the site so I thought I'd add the melody, this does not contain the ending.
It's the part of this song I just can't figure out because it requires
24 frets which I just don't have lol
Well I hope you enjoy (even with the improvised ending xD)

-----------------------------------------------------------|-----------------------------------------------------------|--/12-12----11-12-12/14-12-14br14-/12-12----11-12-12/14-12-|---------12------------------------------12----------------|-----------------------------------------------------------|-----------------------------------------------------------|
-----------------------------------------------------------|--------15-12-13-15-13-12-13-13/17-15-17-15-17-15-15H17P15-|-14br14----------------------------------------------------|-----------------------------------------------------------|-----------------------------------------------------------|-----------------------------------------------------------|
-----------------------------------------------------------|-\13\12\10-------------------------------------------------|-----------12-12----11-12-12/14-12-14BR14-/12-12----11-12--|-----------------12------------------------------12--------|-----------------------------------------------------------|-----------------------------------------------------------|
-----------------------------------------------------------|-----------------15-12-13-15-15-15-15-13-12-13-13/17-17-17-|-12/14-12-14BR14-------------------------------------------|-----------------------------------------------------------|-----------------------------------------------------------|-----------------------------------------------------------|
-------------------------/15-14-12-12h14h15p14p12-10-12-14-|-15-17-15-17-17brprprprp-----------------------------------|-----------------------------------------------------------|-----------------------------------------------------------|-----------------------------------------------------------|-----------------------------------------------------------|
-15-14-12h14p12-10-12-14-15-14-12h14p12-10-----------------|-------------------------------------------13-12-13p12\10--|-----------------------------------------------------------|-----------------------------------------------------------|-----------------------------------------------------------|-----------------------------------------------------------|
-----------------------------------------------------------|-10-10-13-12-10-13-12-10----------------13-12--------------|------------------------/12-12----11-12-------11-12-12/14--|-------------------------------12--------------------------|-----------------------------------------------------------|-----------------------------------------------------------|
-----------------------------------------------------------|------------------------------------------------15-15-12---|-12-14b14-16b16-/12-12----11-12-12/14-12-14b14-------------|-----------------------12----------------------------------|-----------------------------------------------------------|-----------------------------------------------------------|
-----------------------------------------------------------|-13-15-13-12-10--------------------------------------------|----------------12-12----11/12-12-12-12-12-12/20-----------|----------------------12-----------------------------------|-----------------------------------------------------------|-----------------------------------------------------------|
-----------------------------------------------------------|-20-20----15-16-16/18-16-18/20-20b-16-16----15-16-16/18----|-------15--------------------------------15----------------|-----------------------------------------------------------|-----------------------------------------------------------|-----------------------------------------------------------|
-------------18-18----17-18-18/20-18-20/22-20-22brb-18-18--|-16-18/20-18-------18--------------------------------------|-----------------------------------------------------------|-----------------------------------------------------------|-----------------------------------------------------------|-----------------------------------------------------------|
----17-18-18/20-18-20/22-20-22b-18\------------------------|-18--------------------------------------------------------|-----------------------------------------------------------|-----------------------------------------------------------|-----------------------------------------------------------|-----------------------------------------------------------|
Cheers! Tye1989
Tap to rate this tab
 
# A B C D E F G H I J K L M N O P Q R S T U V W X Y Z