Misc Soundtrack – Schindlers List Theme tab

                                                                          
E||-----------|----------------------------|-----------------------------|B||-----------|----------------------------|-----------------------------|G||-----------|----------------------------|-----------------------------|D||-----------|--9-----9-----10--9---------|-----------------9-----------|A||-----------|-----7-----7---------10-----|--10--0--10--12-----10--9----|E||--7--------|-------------------------7--|-----------------------------|
-----------------------------|-------------------------------|-----------------------------|-------------------------------|-----------------------------|-------------------------------|--9-----9-----12--10--9------|----------------10--9----------|-----7-----7-------------12--|---------9--12---------12--10--|-----------------------------|--10--8------------------------|
-------------------------------|----------------------------|-------------------------------|----------------------------|-------------------------------|----------------------------|----------------9--------------|--9-------------------------|--12-----12--------12--10--12--|----------------------------|------8------8-----------------|-------12--12--11----12--7--|
------------------------------|----------------------|------------------------------|----------------------|------------------------------|----------------------|----------------9-------------|----------------------|--12-----12--------12--10--9--|--7---------9----9----|------8------8----------------|-------7--------------|
------------------------------|----------------------------|------|------------------------------|----------------------------|------|------------------------------|---------------9-----9--12~______--|----------------9-------------|------------9-----9---------|------|--10--0--10--0-----12--10--9--|--7-----10------------------|------|------------------------------|-----7----------------------|------|
--------------------------------|----------------------------|--12-10-13--12------------------|----------------------------|----------------11---12-14------|--12-14-11--9-8-9-----------|--------------------------------|-------------------9--------|--------------------------------|----------------------------|--------------------------------|----------------------------|
--------------------------------|-----------------------|-------|--12-10-15--13------------------|-----------------------|-------|----------------11---12-14------|-----------------------|-------|--------------------------------|--12------10--9--------|-------|--------------------------------|-----------------------|--7----|--------------------------------|-----------------------|-------|
----------------------------|-----------------------------|----------------------------|-----------------------------|--9-----9-----10--9---------|-----------------9-----------|-----7-----7---------10-----|--10--0--10--12-----10--9----|-------------------------7--|-----------------------------|----------------------------|-----------------------------|
-----------------------------|-------------------------------|-----------------------------|-------------------------------|--9-----9-----12--10--9------|----------------10--9----------|-----7-----7-------------12--|---------9--12---------12--10--|-----------------------------|--10--8------------------------|-----------------------------|-------------------------------|
-------------------------------|----------------------------|-------------------------------|----------------------------|----------------9--------------|--9-------------------------|--12-----12--------12--10--12--|----------------------------|------8------8-----------------|-------12--12--11----12--7--|-------------------------------|----------------------------|
------------------------------|----------------------|------------------------------|----------------------|----------------9-------------|----------------------|--12-----12--------12--10--9--|--7---------9----9----|------8------8----------------|-------7--------------|------------------------------|----------------------|
------------------------------|---------------------------|------|------------------------------|---------------------------|------|----------------9-------------|---------------------------|------|--10--0--10--0-----12--10--9--|--7-----------7-----7--10--|------|------------------------------|-----7-----7-----7---------|------|------------------------------|--------8------------------|------|
----------------------------|---------------------------|----------------------------|---------------------------|--9-7-10--9-----------------|---------------------------|-------------9---10-12------|--10-12-9--7-6-7-----------|----------------------------|------------------7--------|----------------------------|---------------------------|
-----------------------------|-----------------------------------|-----------------------------|-----------------------------11----|--9-7-12--10-----------------|-------------------9--10-12--------|--------------9---10-12------|-------9-10--10-12-----------------|-----------------------------|--9-12-----------------------------|-----------------------------|-----------------------------------|
--------------------|-------------------------------|--------------------|--12-----12-----13--12---------|--------------------|------9------9----------12-----|----------10--------|----------------------------9--|--------------------|-------------------------------|--------------------|-------------------------------|
-------------------------------|--------------------------------|-----------------12------------|--12-----12-----15--13--12------|--12-----12--14------12--11----|------9------9--------------14--|------7------------------------|--------------------------------|-------------------------------|--------------------------------|-------------------------------|--------------------------------|
----------------------------------|----------------------------------|------------------13--12----------|------------------12--------------|----------11--14----------14--12--|--14------14----------14--12--14--|--12--10--------------------------|------10------10------------------|----------------------------------|----------------------------------|----------------------------------|----------------------------------|
----------------------------|----------------------------------|--12------------------------|------------------12--------------|----------------------------|--14------14----------14--12--11--|--------14----13--10--9--7--|------10------10------------------|----------------------------|----------------------------------|----------------------------|----------------------------------|
-----------------------------|--------------------------------|-----------------------------|----------------12--------------|--9---------11----12-11-9-11-|--12-----12---------14--12--11--|-------9---------------------|------9------9------------------|-----------------------------|--------------------------------|-----------------------------|--------------------------------|
--------------------------|--------------------------7-----7-12-|----------||--------------------------|------------------8-----8-----8------|----------||--9-----------------------|----------------9-----9-----9--------|----------||-----10--9--7--10----9----|---------9----9----------------------|----------||--------------------------|----7-10---10------------------------|----------||--------------------------|--7-----------------7----------------|----------||
Please rate this tab:
x1.0