Misc Soundtrack - Rocky 4 - War tab

War from the movie Rocky IV

 Intro
  C5
 4/4

Gtr I|-----8-------8-------8-------8---|-----8-------8-------8-------8---||---8---8---8---8---8---8---8---8-|---8---8---8---8---8---8---8---8-||-5-------5-------5-------5-------|-5-------5-------5-------5-------||---------------------------------|---------------------------------||---------------------------------|---------------------------------||---------------------------------|---------------------------------|
|
| Gtr VI|-8-------------------------------|-----------------------------8---||---------------------------------|---------------------------------||---------------------------------|---------------------------------||---------------------------------|---------------------------------||---------------------------------|---------------------------------||---------------------------------|---------------------------------|
|-------8-------8---------8-------8---|-----8-------8-------8-------8---||-----8---8---8---8-----8---8---8---8-|---8---8---8---8---8---8---8---8-||--5--------5--------5--------5-------|-5-------5-------5-------5-------||-------------------------------------|---------------------------------||-------------------------------------|---------------------------------||-------------------------------------|---------------------------------|
|
|-(8)---------------(8)---------------|---------------------------------||-------------------------------------|---------------------------------||-------------------------------------|---------------------------------||-------------------------------------|---------------------------------||-------------------------------------|---------------------------------||-------------------------------------|---------------------------------|
|------8------------8--------8----------8---|--------8-------8----------8--------8----||----8----8------8----8----8---8-----8----8-|------8---8---8---8------8---8---8-----8-||--5----------5----------5--------5---------|---5--------5---------5--------5---------||-------------------------------------------|-----------------------------------------||-------------------------------------------|-----------------------------------------||-------------------------------------------|-----------------------------------------|
|
| Gtrs II, IV|-20-----15-(15)---18---16-------15-13-15---|-(15)---------------(15)-----------------||-------------------------------------------|-----------------------------------13-15-||-------------------------------------------|-----------------------------------------||-------------------------------------------|-----------------------------------------||-------------------------------------------|-----------------------------------------||-------------------------------------------|-----------------------------------------|
|------8-----------8--------8-------8---|--------8-------8-------8-------8-----||----8----8-----8----8----8---8---8---8-|------8---8---8---8---8---8---8---8---||--5---------5----------5-------5-------|---5--------5-------5-------5---------||---------------------------------------|--------------------------------------||---------------------------------------|--------------------------------------||---------------------------------------|--------------------------------------|
|
|---------------------------------------|--------------------------------------||-16-----16-15-13-11---13---------------|-(13)---------------------------------||---------------------------------------|--------------------------------------||---------------------------------------|--------------------------------------||---------------------------------------|--------------------------------------||---------------------------------------|--------------------------------------|
|-----8-------8-------8-------8---|------8------------8--------8----------8---||---8---8---8---8---8---8---8---8-|----8----8------8----8----8---8-----8----8-||-5-------5-------5-------5-------|--5----------5----------5--------5---------||---------------------------------|-------------------------------------------||---------------------------------|-------------------------------------------||---------------------------------|-------------------------------------------|
|
|---------------------------------|-20-----15-(15)---18---16-------15-13-15---||---------------------------------|-------------------------------------------||---------------------------------|-------------------------------------------||---------------------------------|-------------------------------------------||---------------------------------|-------------------------------------------||---------------------------------|-------------------------------------------|
|--------8-------8----------8--------8----|------8-----------8--------8-------8-----||------8---8---8---8------8---8---8-----8-|----8----8-----8----8----8---8---8---8---||---5--------5---------5--------5---------|--5---------5----------5-------5---------||-----------------------------------------|-----------------------------------------||-----------------------------------------|-----------------------------------------||-----------------------------------------|-----------------------------------------|
|
|-(15)---------------(15)-----------------|-----------------------------------------||-----------------------------------13-15-|-16-----16-15-13-11---13-----------------||-----------------------------------------|-----------------------------------------||-----------------------------------------|-----------------------------------------||-----------------------------------------|-----------------------------------------||-----------------------------------------|-----------------------------------------|
|--------8-------8-------8-------8---|-----8--------8---------8-----------8---||------8---8---8---8---8---8---8---8-|---8---8---8-----8----8----8-----8----8-||---5--------5-------5-------5-------|-5-------5----------5---------5---------||------------------------------------|----------------------------------------||------------------------------------|----------------------------------------||------------------------------------|----------------------------------------|
|
|------------------------------------|-------------20-22-23-----23-22-20-18---||-(13)-------------------------------|-------------13-15-16-----16-15-13-11---||------------------------------------|----------------------------------------||------------------------------------|----------------------------------------||------------------------------------|----------------------------------------||------------------------------------|----------------------------------------|
|------8---------8----------8-------8---|-----8--------8--------8--------8------||----8---8---8-------8----8---8---8---8-|---8---8---8----8----8---8---8-----8---||--5-------5------------5-------5-------|-5-------5---------5-------5-----------||---------------------------------------|---------------------------------------||---------------------------------------|---------------------------------------||---------------------------------------|---------------------------------------|
|
|-22------------15--13-15---------------|-------------18---13-------------------||-15-----------(15)-15------------------|-------------------------------16-15---||---------------------------------------|---------------------------------------||---------------------------------------|---------------------------------------||---------------------------------------|---------------------------------------||---------------------------------------|---------------------------------------|
Gtr VI|------8--------8----------8-------8---|-----------|-------------|-5--------||----8---8----8---8------8---8---8---8-|-----------|-------------|----------||--5--------5---------5--------5-------|-----------|-------------|----------||--------------------------------------|-----------|-------------|----------||--------------------------------------|-----------|-------------|----------||--------------------------------------|-----------|-------------|----------|
|
| Gtr II|--------------------------------------|-----------|-------------|----------||-13-----------------------------------|-----------|-------------|----------||--8-------10-------(10)-------8-------|-10--------|-(10)--------|----------||--------------------------------------|-----------|-------------|----------||--------------------------------------|-----------|-------------|----------||--------------------------------------|-----------|-------------|----------|
Pre-Verse Gtr II|---------|----------------------------|---------------------------|------||---------|----------------------------|---------------------------|------||---------|----------------------------|---------------------------|-5----||---------|----------------------------|---------------------------|------||---------|----------------------------|---------------------------|------||---------|----------------------------|---------------------------|------|
|
| Gtr III|---------|-17-12-(12)-15-13--12-10-12-|-(12)-11-10-8-7-6-5-4-3-2--|-1----||---------|----------------------------|------11-10-9-7-6-5-4-3-2--|------||---------|---------------10--------11-|-(11)----------------------|-2----||---------|----------------------------|---------------------------|------||---------|----------------------------|---------------------------|------||---------|----------------------------|---------------------------|------|
|
| Gtr IV|---------|----------------------------|---------------------------|------||---------|----------------------------|---------------------------|-6----||---------|----------------------------|---------------------------|------||---------|----------------------------|---------------------------|------||---------|----------------------------|---------------------------|------||---------|----------------------------|---------------------------|------|
|----------|-----------|----------||----------|--6--------|-8--------||-7--------|--5--------|-7--------||----------|-----------|-9--------||----------|-----------|----------||----------|-----------|----------|
|
| Gtr III|-3--------|--3--------|-3--------||----------|-----------|----------||----------|-----------|----------||----------|-----------|----------||----------|-----------|----------||----------|-----------|----------|
|
| Gtr IV|----------|-----------|-7--------||-8--------|-10--------|-8--------||----------|-----------|----------||----------|-----------|----------||----------|-----------|----------||----------|-----------|----------|
Fmaj7/A|-------------------------------------------------------||-------------------------------------------------------||-------------------------------------------------------||-------------------------------------------------------||-------------------------------------------------------||-------------------------------------------------------|
|
|-------------------------------------------------------||-------------------------------------------------------||-------------------------------------------------------||-------------------------------------------------------||-------------------------------------------------------||-------------------------------------------------------|
|
|-------------------------------------------------------||----------10-(10)-------------------10-(10)------------||-------10---------10-------------10---------10---------||----14---------------14----14-14---------------14------||-12---------------------12------------------------12---||-------------------------------------------------------|
Gtr IV|-----------------------------------------------------|-----------------------------------------------------||----------10-(10)-------------------10-(10)----------|----------10-(10)-------------------10-(10)----------||-------10---------10-------------10---------10-------|-------10---------10-------------10---------10-------||----14---------------14----14-14---------------14----|----14---------------14----14-14---------------14----||-12---------------------12------------------------12-|-12---------------------12------------------------12-||-----------------------------------------------------|-----------------------------------------------------|
Gtr II|---------------------------------------------------|-17-12-(12)-15-13--12-10-12---||----------10-(10)----------------------------------|------------------------------||-------10---------10-------------------------------|------------------------------||----14---------------14-------14----14----14----14-|------------------------------||-12---------------------12-15----14----12----11----|------------------------------||---------------------------------------------------|------------------------------|
Verse G F G F G|-(12)-10-8-10-8-7-8-------7---|------------------||--------------------8-(8)-----|-10---------------||------------------------------|------------------||------------------------------|------------------||------------------------------|------------------||------------------------------|------------------|
|
| Gtr IV|----------------------------7-|--7-5-5-7-7-5-5-7-||----------------------------8-|--8-6-6-8-8-6-6-8-||------------------------------|------------------||------------------------------|------------------||------------------------------|------------------||------------------------------|------------------|
F G F G F G|---------------7-8-------7---|------------------||-(10)-10-10-10-----8-(8)-----|-10---------------||-----------------------------|------------------||-----------------------------|------------------||-----------------------------|------------------||-----------------------------|------------------|
|
|---5-----------------------7-|--7-5-5-7-7-5-5-7-||---6-----------------------8-|--8-6-6-8-8-6-6-8-||-----------------------------|------------------||-----------------------------|------------------||-----------------------------|------------------||-----------------------------|------------------|
F|------------8-10-12-13-----12-(12)-10-12-|-(12)-----10-(10)-8-10-(10)------8--(8)-7--8-||-10-10-8-10------------------------------|---------------------------------------------||-----------------------------------------|---------------------------------------------||-----------------------------------------|---------------------------------------------||-----------------------------------------|---------------------------------------------||-----------------------------------------|---------------------------------------------|
|
|--5--------------------------------------|---------------------------------------------||--6----------------------6-10-(10)--6-10-|--------6-10-(10)-6-10--------6-10-(10)-6-10-||-----------------------9-----------------|------9---------------------9----------------||---------------------7-------------------|---7---------------------7-------------------||-----------------------------------------|---------------------------------------------||-----------------------------------------|---------------------------------------------|
|--(8)-10-12-13-----12-(12)-10-12-|-(12)-----10-(10)-8-10-(10)-----8---------7---||---------------------------------|----------------------------------------------||---------------------------------|----------------------------------------------||---------------------------------|----------------------------------------------||---------------------------------|----------------------------------------------||---------------------------------|----------------------------------------------|
|
|---------------------------------|-----------5--(5)----5------------5-(5)-----5-||-(10)------------6-10-(10)--6-10-|--------5---------5-----------5---------5-----||---------------9-----------------|------7---------------------7-----------------||-------------7-------------------|---7---------------------7--------------------||---------------------------------|----------------------------------------------||---------------------------------|----------------------------------------------|
|-8-------7-------------|---------||-----------------10----|---------||-----------------------|---------||-----------------------|---------||-----------------------|---------||-----------------------|---------|
|
|-------5-------7-------|---------||-7---7---9---9---------|---------||---7-------9-----------|---------||-----------------------|---------||-----------------------|---------||-----------------------|---------|
|
| Gtr I|-----------------------|---------||-----------------------|---------||-----------------------|---------||-----------------------|---------||-----------------------|---------||-----------------------|---------|
|-------------------------8-7-8-12-|-10----8-7-8----||----------------------------------|----------------||----------------------------------|----------------||----------------------------------|----------------||----------------------------------|----------------||----------------------------------|----------------|
|
|--13-17-20-19-15------------------|----------------||-----------------15-13------------|-----------6----||----------------------------------|--4--5----------||-----------------------7----------|----------------||----------------------------------|----------------||----------------------------------|----------------|
|
|--13-17-20-19-15------------------|----------------||-----------------15-13------------|----------------||----------------------------------|----------------||----------------------------------|----------------||----------------------------------|----------------||----------------------------------|----------------|
A5 E5/B C F/D|-----------------------------8-7--8--12-|-10--15-(15)-19-19-20-(20)-17-||----------------------------------------|------------------------------||----------------------------------------|------------------------------||----------------------------------------|------------------------------||----------------------------------------|------------------------------||----------------------------------------|------------------------------|
|
|-----13-17-20-19-15---------------------|------------------------------||-(6)----------------15-13-10-----10-----|-12------13-----13------------||---------------------------9-----(9)----|-(9)-----(9)----14------------||----------------------------------7-----|--9------10-----15------------||----------------------------------------|----------------17------------||----------------------------------------|------------------------------|
|
|-----13-17-20-19-15---------------------|------------------------------||--------------------15-13---------------|------------------------------||----------------------------------------|------------------------------||----------------------------------------|------------------------------||----------------------------------------|------------------------------||----------------------------------------|------------------------------|
Dm6|-(17)---19-20-22-19-(19)-15-|-13--12--20-17-(17)-13--||----------------------------|------------------------||----------------------------|------------------------||----------------------------|------------------------||----------------------------|------------------------||----------------------------|------------------------|
|
|----------------------------|---------10-------------||-(13)-----------------------|-13------12-------------||-(14)-----------------------|-14------14-------------||-(15)-----------------------|-15------15-------------||-(17)-----------------------|-17------17-------------||----------------------------|------------------------|
|
|----------------------------|------------------------||----------------------------|------------------------||----------------------------|------------------------||----------------------------|------------------------||----------------------------|------------------------||----------------------------|------------------------|
|--12---(12)-10-8-7-5----|-(5)--------|----------------8-10-12-13-----12-(12)-10-12-||------------------------|------------|--10-12-10-8-10------------------------------||------------------------|------------|---------------------------------------------||------------------------|------------|---------------------------------------------||------------------------|------------|---------------------------------------------||------------------------|------------|---------------------------------------------|
|
|-(10)-------------------|------------|---------------------------------------------||--12--------------------|------------|-----------------------------6-10-(10)--6-10-||--13--------------------|------------|---------------------------9-----------------||--14--------------------|------------|-------------------------7-------------------||------------------------|------------|---------------------------------------------||------------------------|------------|---------------------------------------------|
|-(12)-----10-(10)-8-10-(10)------8--(8)-7--8---||-----------------------------------------------||-----------------------------------------------||-----------------------------------------------||-----------------------------------------------||-----------------------------------------------|
|
|-----------------------------------------------||--------6-10-(10)-6-10--------6-10-(10)-6-10---||------9---------------------9------------------||---7---------------------7---------------------||-----------------------------------------------||-----------------------------------------------|
|--(8)-10-12-13-----12-(12)-10-12-||---------------------------------||---------------------------------||---------------------------------||---------------------------------||---------------------------------|
|
|---------------------------------||-(10)------------6-10-(10)--6-10-||---------------9-----------------||-------------7-------------------||---------------------------------||---------------------------------|
|-(12)-----10-(10)-8-10-(10)-----8-----------7----|-8-------7-----8-7-5----|-----||-------------------------------------------------|------------------------|-----||-------------------------------------------------|------------------------|-----||-------------------------------------------------|------------------------|-----||-------------------------------------------------|------------------------|-----||-------------------------------------------------|------------------------|-----|
|
|-------------------------------------------------|-------5-------7--------|-----||--------6-10-(10)-6-10--------6---10-(10)-6---10-|-7---7---9---9----------|-----||------9---------------------9--------------------|---7-------9------------|-----||---7---------------------7-----------------------|------------------------|-----||-------------------------------------------------|------------------------|-----||-------------------------------------------------|------------------------|-----|
Interlude Ab/Eb Gtr II | /
Gtr V|-23-20----------20-23-20----------20-23-20----------20-23-20----------20-||-------21----21----------21----21----------21----21----------21----21----||----------20----------------20----------------20----------------20-------||-------------------------------------------------------------------------||-------------------------------------------------------------------------||-------------------------------------------------------------------------|
A/E | /
|-24-21----------21-24-21----------21-24-21----------21-24-21----------21-||-------22----22----------22----22----------22----22----------22----22----||----------21----------------21----------------21----------------21-------||-------------------------------------------------------------------------||-------------------------------------------------------------------------||-------------------------------------------------------------------------|
B/F# | /
|-26-24----------24-26-24----------24-26-24----------24-26--||-------28----28----------28----28----------28----28--------||----------28----------------28----------------28-----------||-----------------------------------------------------------||-----------------------------------------------------------||-----------------------------------------------------------|
B G#sus4 | | | | | | | | / / / / / / / /
|-26-24----------24-26-24----------24-26-24----------24-26---||-------28----28----------28----28----------28----28---------||----------28----------------28----------------28------------||------------------------------------------------------------||------------------------------------------------------------||------------------------------------------------------------|
G#sus4 A B/F# Eb/G Gtr II | | | | | | | | | | / / / / / / / / / /
|---------|---------|---------|-----||---------|---------|---------|-----||---------|---------|---------|-----||---------|---------|---------|-----||---------|---------|---------|-----||---------|---------|---------|-----|
C# Gtr II|-----------------|-----------------|--------------------|--------------------||-----------------|-----------------|--------------------|--------------------||-----------------|-----------------|--------------------|--------------------||-----------------|-----------------|--------------------|--------------------||-----------------|-----------------|--4-------2---------|--------------------||-----------------|-----------------|----7-(7)----8------|--7-2-(2)---0-------|
|
| Gtr VI|-21--21--21--21--|-21--21--21--21--|-21---21----21--21--|-21---21---21--21---||-----------------|-----------------|--------------------|--------------------||-18--18--18--18--|-18--18--18--18--|-18---18----18--18--|-18---18---18--18---||---------17------|-----17--17--17--|-17---17----17--17--|-17---17---17--17---||-----16----------|-----------------|--------------------|--------------------||-----------------|-----------------|--------------------|--------------------|
|--------------------|---------------14-16-||--------------------|---------------------||--------------------|---------------------||--------------------|---------------------||--4-------2---------|---------------------||----7-(7)----8------|--7-2-(2)---0--------|
|
|-21---21----21--21--|-21---21---21--------||--------------------|---------------------||-18---18----18--18--|-18---18---18--------||-17---17----17--17--|-17---17---17--------||--------------------|---------------------||--------------------|---------------------|
|-17-------16-(16)-14-16-(16)-------14-(14)-12-14-|-(14)-------12-(12)-11-12-(12)-14-16---||-------------------------------------------------|---------------------------------------||-------------------------------------------------|---------------------------------------||-------------------------------------------------|---------------------------------------||-------------------------------------------------|---------------------------------------||-------------------------------------------------|---------------------------------------|
|
| Gtr IV|-------------------------------------------------|---------------------------------------||-------10-14-(14)-10-14---------10-14-(14)-10-14-|---------10-14-(14)-10-14-(14)---------||----13-----------------------13------------------|------13-------------------------------||-11----------------------11----------------------|--11-----------------------------------||-------------------------------------------------|---------------------------------------||-------------------------------------------------|---------------------------------------|
|-17-------16-(16)-14-16-(16)-------14-(14)-12-14-||-------------------------------------------------||-------------------------------------------------||-------------------------------------------------||-------------------------------------------------||-------------------------------------------------|
|
|-------------------------------------------------||-------10-14-(14)-10-14---------10-14-(14)-10-14-||----13-----------------------13------------------||-11----------------------11----------------------||-------------------------------------------------||-------------------------------------------------|
|-(14)-------12------------11----12---------11----------||-------------------------------------------------------||-------------------------------------------------------||-------------------------------------------------------||-------------------------------------------------------||-------------------------------------------------------|
|
|-----------------------------------------9----------11-||---------10----14-(14)-10----14-11----11---13----13----||------13---------------------------11---------13-------||--11---------------------------------------------------||-------------------------------------------------------||-------------------------------------------------------|
C# Fm C#|-------------------13----------13-|-13-13-13-13-13-13-16-13-13-13--||-14-14-14-14-14-14----14-14-14----|-14-14-14-14-14-14-18-14-14-14--||----------------------------------|--------------------------------||----------------------------------|--------------------------------||----------------------------------|--------------------------------||----------------------------------|--------------------------------|
|
|-------------------13----------13-|-13-13-13-13-13-13-16-13-13-13--||-14-14-14-14-14-14----14-14-14----|-14-14-14-14-14-14-18-14-14-14--||----------------------------------|--------------------------------||----------------------------------|--------------------------------||----------------------------------|--------------------------------||----------------------------------|--------------------------------|
C#5 C#/F C#5 Fm/D#m|----------21-21-21----------13-16-14-||-21-21-21----------21-21-21----------||-------------------------------------||-------------------------------------||-------------------------------------||-------------------------------------|
|
|----------21-21-21-------------28-26-||-21-21-21-18-18-18-21-21-21-18-18-19-||-18-18-18----------18-18-18-18-25-20-||-------------------------------------||-------------------------------------||-------------------------------------|
C# Fm D#mC# D#mC#/G#7 C#/Ab|-13--16-14-13-14-16-14-|-13--------|-(13)----(13)----*||-----------------------|-----------|-----------------*||-----------------------|-----------|-----------------*||-----------------------|-----------|-----------------*||-----------------------|-----------|-----------------*||-----------------------|-----------|-----------------*|
|
|-25--28-26-25-26-28-26-|-25--------|-(25)----(25)----*||-18--21-19-18-19-21-19-|-18--------|-(18)----(18)----*||-18--22-20-18-20-22-20-|-18--------|-(18)----(18)----*||--------------22-23-22-|-18--------|-(18)----(18)----*||-----------------25-23-|-----------|-----------------*||-----------------------|-----------|-----------------*|
Like it contact me choptopsbbq@hotmail.co.uk
Tap to rate this tab
 
# A B C D E F G H I J K L M N O P Q R S T U V W X Y Z