Misc Television - Toradora - Lost My Pieces tab

Disclaimer-I do not own this music and did not make this tablink to original-http://www.gametabs.net/toradora/lost-my-piecesE||------------------0----|B||--3--------3-----------|G||-----0-----------------|D||--------4--0-----------|A||-----2-----------------|E||--0--------------------|
------------------------|--0--------3------------|--------2-----0----2----|-----4------------------|--5----------------2----|--------------0---------|
--------------------------|--0--1--0-----------------|--------0--2--0-----0--2--|-----2-----------4--0-----|--3-----------------------|--------------0-----------|
------------------------|------------------------|-----------2-------0----|--0--0--4-----4---------|--2---------------------|------------------------|
------------------------|------------------------|--2----------------0----|-----------0--4---------|--2-----0---------------|-----3------------------|
-----------------------|--3--------------------|-----------2--2--------|-----0--4-----4--------|--2-----------5--------|-----------------------|
----------------------|--0-------------------|-------------3--------|--------4----4--------|-----2----------------|--2-------------------|
----------------------|-----------------4----|--4---------4---------|--4----4--------------|--6-------------------|--7-------------------|
--0-----2----3----------|-------------------3----|--------0-------0--4----|-----2------------------|--0----------2----------|------------------------|
--0--L--2----3----5----|--------1--------------|-----0-------0---------|------------------0----|--3--------------------|-----------------------|
--7--------------------|--8-----0--8--------L--|-----0-----------------|-----------------------|--7--------------------|-----------------------|
^ --5------------------|--3--------0----1----|--2------------------|--4------------------|---------------------|---------------------|
-----0-----3--2--------0--|--3-----3--------3--------|--------------0-----2-----|--------------------------|--3-----3-----------------|-----3-----0--------0-----|
--------------------------|--3-----------------1-----|--2-----------2-----------|--4--------4-----0-----0--|--5--0--5-----0-----3-----|--------------------------|
-----------0--------------|--0--1--0-----3--------1--|-----------0-----0--2-----|--------2--------------2--|-----2--------2-----2-----|--0--------------0--------|
-------------------------|--0----------------------|--------------0-----2----|--0-----0--4-----0--4----|-----0--------0----------|-------------------------|
-----0-----3--2--------0--|--3-----3--------3--------|--------------0-----2-----|--------------------------|--3-----3-----------------|-----3-----0--------0-----|
--------3-----5----8----|--3---------------------|------------------------|-----------4-------0----|--5-----5-----0---------|-----5------------------|
--7-----------5-----------|--8--------------7--------|-----0--------------------|--------0-----0--------0--|--------------------0-----|--0--------0--------------|
--3-----------2-----------|--5--------1--3-----------|--------0--------4-----2--|--------------0-----------|--3-----------------0-----|-----0--------------------|
NH -------------------<>12----|--3--------3---------------|-----0----------0----------|--------4------------------|-----2---------------------|--0-------------------0----|
NH --------------2--------|--<>12--------3--------|--------------2--------|--------------0--------|-----------------------|-----L-----------------|
--------------------------|--0--1--0-----------------|--------0--2--0-----0--2--|-----2-----------4--0-----|--3-----------------------|--------------0-----------|
------------------------|------------------------|-----------2-------0----|--0--0--4-----4---------|--2---------------------|------------------------|
--5-----------2----5----|--0---------------------|-----0-----2--L---------|------------------------|--3-----0---------------|------------------------|
--10-----------5--------|------------7-----------|---------7--------------|------7-----------------|---------------0--------|---7--------------------|
--7--------6--------|--7------------------|--7--------7--------|--0------------0--1--|--------------------|--8------------0--0--|--------------------|------------------0--|--------------------|---------------------|--7-----------------|--7------------------|
-----0-----3--2--------0--|--3--3--3--0--0--3-----0--|--0--0--0--0-----0--2-----|--------------0-----0-----|--3-----3-----------------|-----3-----0--------0-----|
--------------------------|--3-----------------1-----|--2-----------2-----------|--4--------4-----0-----0--|--5--0--5-----0-----3-----|--------------------------|
-----------0--------------|--0--1--0--0--3--------1--|--0--0--0--0--0--0--2--2--|--------2--------0--0--0--|-----2--------2-----2-----|--0--------------0--------|
-------------------------|--0----------------------|--------------0-----2----|--0-----0--4-----0--4----|-----0--------0----------|--0----------------------|
-----0-----3--2--------0--|--3--3--3--0-----3-----0--|--0--0--0-----0--0--2-----|--------------0-----0-----|--3-----3-----------------|-----3-----0--------0-----|
--------3-----5----8----|--3-----3-----3----7----|--0-----0---------------|-----------4-------0----|--5-----5-----0---------|-----5------------------|
NH NH NH NH ----------------------------------------|--<>12-----12-----10--------------<>12--|--<>12------0---------------------<>12--|--------0----------0--------<>12--------|----------------------<>12--------------|-----0---------0------------------------|
-------------------------|--8-------------7--------|--9----------9--7--------|---------10-----0--------|-----10------------------|--8----------------------|
------------------0----|--2--------3--------|--3--------3-----------|--------------------|-----0-----------------|--------------------|--------4--------------|--------------------|-----------------------|--------------------|--0--------------------|-----------L--------|
v --0----------------||--3----------------||--0----------------||--4----------------||--0----------------||-------------------||
Tablature Legend ---------------- L - tied note x - dead note g - grace note NH - natural harmonic AH - artificial harmonic h - hammer on p - pull off ^ - brush up v - brush down
Tap to rate this tab
 
# A B C D E F G H I J K L M N O P Q R S T U V W X Y Z