Misc Traditional - Australian National Anthem tab

Tabbed By: an2n
Email: an2n11@hotmail.com

fun to play with high distortion enjoy : )


|--0---5---0-------0---5---5-5---||--------------2-----------------||--------------------------------||--------------------------------||--------------------------------||--------------------------------|
|--9---7---5---4---5---7---------||--------------------------------||--------------------------------||--------------------------------||--------------------------------||--------------------------------|
|--0---5---0-------0---5---5-5---||--------------2-----------------||--------------------------------||--------------------------------||--------------------------------||--------------------------------|
|--9---7---5---4---2---0---------||--------------------------------||--------------------------------||--------------------------------||--------------------------------||--------------------------------|
|--0---2---4---5---2---0---------||--------------------------2-2---||--------------------------------||--------------------------------||--------------------------------||--------------------------------|
|--0---2---4---5---9---7---------||--------------------------------||--------------------------------||--------------------------------||--------------------------------||--------------------------------|
|--0---2---4---5---2---0---5-5---||--------------------------------||--------------------------------||--------------------------------||--------------------------------||--------------------------------|
|--7---9---5---7---4---5---------||--------------------------------||--------------------------------||--------------------------------||--------------------------------||--------------------------------|
|--9---10---9---7---5---4---2---0||--------------------------------||--------------------------------||--------------------------------||--------------------------------||--------------------------------|
|--7---9---5---7---12---5--------||--------------------------------||--------------------------------||--------------------------------||--------------------------------||--------------------------------|
Tap to rate this tab
 
# A B C D E F G H I J K L M N O P Q R S T U V W X Y Z