Misc Traditional - Shell Be Coming Around The Mountain tab version 1

----------------------------------------------------------------------------
	           She'll Be Coming Round the Mountain
----------------------------------------------------------------------------


Tabbed by: Dave S. 
Email: prime-prine@hotmail.com

Tuning: Standard



|----0--3--3--|-3--3--0-----|-------3-----|-------------||-3-----------|----------3--|-0--3--------|-------------||-------------|-------------|-------------|-------------||----0-----0--|----0-----0--|----0-----0--|----0-----0--||-------------|-------------|-------------|-------------||-3-----3-----|-3-----3-----|-3-----3-----|-3-----3-----|
|-3--5--7--7--|-7--7--10--7--|-5--3--5-----|-------5-----||-------------|--------------|----------7--|----7-----7--||-------0-----|-0------0-----|-0-----------|-5-----------||----0-----0--|----0------0--|----0-----7--|----7-----7--||-------------|--------------|-------5-----|-------5-----||-3-----------|--------------|-------------|-5-----------|
|-10------7--7--|-7--7--5--3--|-3--3--0--0--|-0--0--5--3--||-----13--------|-------------|-------------|-------------||------------0--|----0--------|-------------|-------------||---------0-----|-0-----0-----|-0--------2--|----2-----2--||-----12--------|-------------|-------3-----|-------3-----||-10------------|----------3--|----3--------|-3-----------|
|-2--0--------|-------7--5--|----5--3-----|-------------||-------3--3--|-3--3--------|-7-----------|-------------||-------------|-------------|-------------|-------------||----2-----0--|----0-----7--|----7-----0--|----0-----0--||-------------|-------5-----|-5-----------|-------------||-3-----3-----|-3-----------|-------3-----|-3-----3-----|
|----0--3--3--|-3--3--0-----|-------3-----|-------------||-3-----------|----------3--|-0--3--------|-------------||-------------|-------------|-------------|-------------||----0-----0--|----0-----0--|----0-----0--|----0-----0--||-------------|-------------|-------------|-------------||-3-----3-----|-3-----3-----|-3-----3-----|-3-----3-----|
|-3--5--7--7--|-7--7--10--7--|-5--3--5-----|-------5-----||-------------|--------------|----------7--|----7-----7--||-------0-----|-0------0-----|-0-----------|-5-----------||----0-----0--|----0------0--|----0-----7--|----7-----7--||-------------|--------------|-------5-----|-------5-----||-3-----------|--------------|-------------|-5-----------|
|-10------7--7--|-7--7--5--3--|-3--3--0--0--|-0--0--5--3--||-----13--------|-------------|-------------|-------------||------------0--|----0--------|-------------|-------------||---------0-----|-0-----0-----|-0--------2--|----2-----2--||-----12--------|-------------|-------3-----|-------3-----||-10------------|----------3--|----3--------|-3-----------|
|-2--0--------|-------7--5--|----5---3----||-------3--3--|-3--3--------|-7------0----||-------------|-------------|--------0----||----2-----0--|----0-----7--|----7---0----||-------------|-------5-----|-5-----------||-3-----3-----|-3-----------|--------3----|
Just the melody
|----0--3--3--3--3--0-----------3--|---------7--7--7--7--10--7-------------||-3--------------------3--0--3-----|--8--10---------------------10--8--10--||----------------------------------|---------------------------------------||----------------------------------|---------------------------------------||----------------------------------|---------------------------------------||----------------------------------|---------------------------------------|
|-10--8--7--7--7--7---------------0--0--0--0---------||--------------------10--8--8--8--------------10--8--||----------------------------------------------------||----------------------------------------------------||----------------------------------------------------||----------------------------------------------------|
|-------------------7--5-----5-----||-7--5--------------------7-----8--||-------7--7--7--7-----------------||----------------------------------||----------------------------------||----------------------------------|
Chords G She'll be coming round the mountain G When she comes G She'll be coming round the mountain D7 When she comes G G7 She'll be coming round the mountain C She'll be coming round the mountain G D7 She'll be coming round the mountain G When she comes | / slide up | \ slide down | h hammer-on | p pull-off | ~ vibrato | + harmonic | x Mute note ===========================================================================
Tap to rate this tab
 
# A B C D E F G H I J K L M N O P Q R S T U V W X Y Z