Misc Traditional - Malaguena tab version 2

this is the second song i learned on the guitar
and the other tabs don't have the full song
so this is how i play it

-0---------------0-1-3-1---------------------------------------------------|-0--------------------------------0-3-1h3p1-0----------------0-3-1-0-------|-1-----------------------------------------------------2-1-2---------2-0---|-2-----------------------------------------------------------------------3-|-2-------------------------------------------------------------------------|-0-------------------------------------------------------------------------|this first part is played pretty slow make good pauses between each piece
----------------0-----0-1-3-1------------------------------------------|----------------0-----------------0-3-1h3p1-0-----------0-3-1-0--------|----------------1---------------------------------2-1-2---------2-0----|----------------2---------------------------------------------------3--|----------------2------------------------------------------------------|----------------0------------------------------------------------------|a little faster than the first part
--0--0--0----------|--0--0--0----------|--1--1--1----------|--2--2--2----------|--2--2--2----------|--0--0--0----------|this strum patternis down up down(still pretty slow)
--0-1-3-1-0--0--0---------------0--0--0----------------------0--0--0-----|----------0--0--0---0-3-1h3p1-0-0--0--0--------0-3-1-0-------0--0--0-----|----------1--1--1---------------2--2--2--2-1-2---------2-0---1--1--1-----|----------2--2--2---------------3--3--3--------------------3-2--2--2-----|----------2--2--2---------------3--3--3----------------------2--2--2-----|----------0--0--0---------------0--0--0----------------------0--0--0-----|
this is where the song really picks up and is very fast paced--0-1-3-1-0---------------0------------------0-----|----------0-0-3-1h3p1-0---0------0-3-1-0-----0-----|----------1---------------2-2-1-2-------2-0--1-----|----------2---------------3----------------3-2-----|----------2---------------3------------------2-----|----------0---------------0------------------0-----|repeat once
-0-0--0-0--0-0--0-0--|-0-0--0-0--0-0--0-0--|-1-1--1-1--1-1--1-1--|-2-2--2-2--2-2--2-2--|-2-2--2-2--2-2--2-2--|-0-0--0-0--0-0--0-0--|
this strumming is very very fast paceit goes 1&2&3&4& repeat twicedo this for each chord-0-0--0-0--0-0--0-0--|-0-0--0-0--0-0--0-0--|-2-2--2-2--2-2--2-2--|-3-3--3-3--3-3--3-3--|-3-3--3-3--3-3--3-3--|-0-0--0-0--0-0--0-0--|
-0-0--0-0--0-0--0-0--|-0-0--0-0--0-0--0-0--|-1-1--1-1--1-1--1-1--|-2-2--2-2--2-2--2-2--|-2-2--2-2--2-2--2-2--|-0-0--0-0--0-0--0-0--|
-0-0--0-0--0-0--0-0--|-0-0--0-0--0-0--0-0--|-2-2--2-2--2-2--2-2--|-3-3--3-3--3-3--3-3--|-3-3--3-3--3-3--3-3--|-0-0--0-0--0-0--0-0--|
for these next thre chords only play each part onceDO NOT REPEAT-0-0--0-0--0-0--0-0--|-0-0--0-0--0-0--0-0--|-4-4--4-4--4-4--4-4--|-5-5--5-5--5-5--5-5--|-5-5--5-5--5-5--5-5--|-0-0--0-0--0-0--0-0--|
-0-0--0-0--0-0--0-0--|-0-0--0-0--0-0--0-0--|-2-2--2-2--2-2--2-2--|-3-3--3-3--3-3--3-3--|-3-3--3-3--3-3--3-3--|-0-0--0-0--0-0--0-0--|
-0-0--0-0--0-0--0-0--|-1-1--1-1--1-1--1-1--|-2-2--2-2--2-2--2-2--|-2-2--2-2--2-2--2-2--|-0-0--0-0--0-0--0-0--|
-----------------------------------------------------|-------0-----0-----0--3-1--------0-----0-----0-------|---1-2---1-2---1-2-----------1-2---1-2---1-2---2-1---|-----------------------------------------------------|-----------------------------------------------------|-0-----0-----0-----0----0--0-----0-----0-----0---0---|
-------0-----0-----0-----------------0-1-|---0-1---0-1---0-1----3-1----0-1-1-3-----|---------------------------2-------------|-----------------------------------------|-----------------------------------------|-0-----0-----0-----0----1----------------|
now play the same strum part that was right before this part
---0---0---0---0---0---0---0---0---0---0---0---0------|---------0-----------0-------1---0--------------------|-----2-----------2-------2-----------2---0------------|-4-----------4-------------------------------3--------|------------------------------------------------------|------------------------------------------------------|repeat a couple times
now play the same strum part that was right before this part
---0---0---0---0---0---0---0---0---0---0---0---0---0--|------------------------------------------------------|------------------------------------------------------|------------------------------------------------------|---------2-----------2---0---3---2---0----------------|-0---4-------0---4-----------------------3---1---0----|repeat a couple times
now play the same strum part that was right before this part once you finish the last chord take about a ten second pause then play
-0-0-0-0-0-0-0-0-0-0-0-----------0-0--0-|-1-1-1-1-1-1-1-1-1-1-1-----------1-1--1-|-2-2-2-2-2-2-2-2-2-2-2-----------2-2--2-|-2-2-2-2-2-2-2-2-2-2-2-----------2-2--2-|-0-0-0-0-0-0-0-0-0-0-0-----------0-0--0-|-0-0-0-0-0-0-0-0-0-0-0-----------0-0--0-|
Tap to rate this tab
 
# A B C D E F G H I J K L M N O P Q R S T U V W X Y Z