Misc Unsigned Bands – Classmate 67 - Take 1 tab

This is our starting album "Classmate 67-Take 1" it is not our official album, its just
first take
TRACK LIST:
1. Hello To Me From You
2. Pentagram Song
3. California
4. 1st Symphony


------------------------1. HELLO TO ME FROM YOU------------------------------

Verse:|----------------------------||----------------------------||----------------------------||----6--------8--------3-----|8x|----6--------8--------3-----||----------------------------|
Pre Chorus:|----------------------------||----------------------------||----------------------------||-------7----7----7----7-----||-----7----7----7----7-------||----------------------------|
4x
|----------------------------||----------------------------||----------------------------||-------6----6----6----6-----||-----6----6----6----6-------||----------------------------|
Chorus:|----------------------------||----------------------------||----------------------------||-7-7--6--4--6-6---6---6---6-|4x|-7-7--6--4--6---6---6---6---||----------------------------|
on last part (and ending):|----------------------------||----------------------------||----------------------------||-7-7--6--4--6---------------||-7-7--6--4--6---------------||----------------------------|
Lyrics: Verse: Today was a good day, cause i finally found the way, to live a normal life, without chopping up your kids or murdering your wife and, let's talk more about you, cause without you i will be forever blue and, up above our true love will be true, just say hello, to me, from you. (PRE CHORUS then CHORUS) I want to buy a home, where ghost and creatures come to haunt us, when we are alone and, in my dreams i see, two people holding hands, represents you and me and, let's talk more about you, cause without you i will be forever blue and, up above our true love will be true, just say hello, to me, from you. (PRE CHORUS then CHORUS) fin. ----------------------------------2. PENTAGRAM SONG--------------------------
Intro:|------------------------||------------------------||------------------------||------------------------||-6-6-6---6-6-6--7-7-1-1-||-6-6-6---6-6-6--7-7-1-1-|
2x
|------------------------||------------------------||------------------------||------------------------||-6-6-6------------------||-6-6-6------------------|
|------------------------||------------------------||------------------------||------------------------||------------------------||--3-2-0----3-2-0--------|
2x
|------------------------||------------------------||------------------------||------------------------||------------------------||-3-2-0-3-2-0-3-2--3-2-0-|
Song Thinger:|------------------------||------------------------||------------------------||------------------------||-3-2-0--3-2-0--3-2-0-2-3||-3-2-0--3-2-0--3-2-0-2-3|
2x
|------------------------||------------------------||------------------------||------------------------||-5--0-2-3-5-------------||-5--0-2-3-5-------------|
Other Thinger:|------------------------||------------------------||------------------------||------------------------||--1-1--0-0---1-1--0-0---||--1-1--0-0---1-1--0-0---|
2x
|------------------------||------------------------||------------------------||------------------------||--0-2-3-5---------------||--0-2-3-5---------------|
End:|------------------------||------------------------||------------------------||------------------------||-6-6-6---6-6-6----------||-6-6-6---6-6-6----------|
--------------------------------------3. CALIFORNIA--------------------------
Intro and Verse:|----------------------||----------------------||----------------------||---------3-3-3-3------||-1--1-1--3-3-3-3------||-1--1-1---------------|
8x
|----------------------||----------------------||----------------------||---------7--7---------||-5--5-5--7--7---------||-5--5-5---------------|
Chorus:|----------------------||----------------------||----------------------||--------3-3-3-3-------||-1-1-1--3-3-3-3-------||-1-1-1----------------|
3x
|----------------------||----------------------||----------------------||----------------------||-3-3-3--5-5-5-3-------||-3-3-3--5-5-5-3-------|
Then|----------------------||----------------------||----------------------||--------3-3-3-3-------||-1-1-1--3-3-3-3-------||-1-1-1----------------|
1x
|----------------------||----------------------||----------------------||---------3------------||-3-3-3---3-3-3-3------||-3-3-3-----3-3-3------|
Second Chorus:|----------------------||----------------------||----------------------||----------------------||-12-12--10-10--7-7-5-5||-12-12--10-10--7-7-5-5|
2x
|----------------------||----------------------||----------------------||----------------------||-3-3--3-2-0-----------||-3-3--3-2-0-----------|
Intro and Verse Chorus Second Chorus Verse (only 4x) Chorus Second Chorus Chorus Second Chorus fin. Lyrics: Verse: Comin down hard like a big balloon and you dont know me, like i do and Flyin like a bird every single day and night, you say its odd, but i say its alright and Im not afraid of death its just life as a ghost, life is a show and im your host You may think im strange but i really gotta warn ya this is what you get when you enter california Chorus: you dont know, what its like living in, california were all strange, we all know, you cant leave, i tried to warn ya no one cares, if you die, only family, really will mourn ya wanna run, away with me i said, i said, okay. (second chorus is always instrumental) Verse: Fish in the morning, fish at night, jesus is cool, hes alright Christianity big in CA, but they all force you, cuz they dont play You want me, and i want you, too many dating sites to find your true This is California just to let you know once we hold on, we dont let you go Chorus: you dont know, what its like living in, california were all strange, we all know, you cant leave, i tried to warn ya no one cares, if you die, only family, really will mourn ya wanna run, away with me i said, i said, okay. (second chorus is always instrumental) Chorus: you dont know, what its like living in, california were all strange, we all know, you cant leave, i tried to warn ya no one cares, if you die, only family, really will mourn ya wanna run, away with me i said, i said, okay. (second chorus is always instrumental) ----------------------------4. 1st Symphony----------------------------------
|----------------------||----------------------||---0--0-----0--0------||--0--0--0--0--0--0----||-2--2--2--1--1--1-----||----------------------|
|----------------------||----------------------||---0--0-----0--0------||--0--0--0--0--0--0----||-0--0--0--3--3--3-----||----------------------|
|----------------------||----------------------||---0--0-----0--0------||--0--0--0--0--0--0----||-2--2--2--1--1--1-----||----------------------|
|----------------------||----------------------||---0--0-----0--0------||--0--0--0--0--0--0----||-0--0--0--3--3--3-----||----------------------|
|----------------------||----------------------||---0--0-----0--0------||--0--0--0--0--0--0----||-7--7--7--9--9--9-----||----------------------|
|----------------------||----------------------||---0--0-----0--0------||--0--0--0--0--0--0----||-3--3--3--0--0--0-----||----------------------|
|----------------------||----------------------||---0--0-----0--0------||--0--0--0--0--0--0----||-2--2--2--1--1--1-----||----------------------|
|----------------------||----------------------||----------------------||----------------------||-0~~---------0-3------||----------------------|
|----------------------||----------------------||-0--0-0-0-0-0---------||-0--0-0-0-0-0---------||-2--2-2-2-2-2---------||----------------------|
|----------------------||----------------------||-0--0-0-0-0-0---------||-0--0-0-0-0-0---------||-1--1-1-1-1-1---------||----------------------|
|----------------------||----------------------||-0--0-0-0-0-0---------||-0--0-0-0-0-0---------||-0--0-0-0-0-0---------||----------------------|
|----------------------||----------------------||-0--0-0-0-0-0---------||-0--0-0-0-0-0---------||-3--3-3-3-3-3---------||----------------------|
|----------------------||----------------------||-0--0-0-0-0-0---------||-0--0-0-0-0-0---------||-2--2-2-2-2-2---------||----------------------|
|----------------------||----------------------||-0--0-0-0-0-0---------||-0--0-0-0-0-0---------||-1--1-1-1-1-1---------||----------------------|
|----------------------||----------------------||-0--0-0-0-0-0---------||-0--0-0-0-0-0---------||-0--0-0-0-0-0---------||----------------------|
|----------------------||----------------------||-0--0-0-0-0-0---------||-0--0-0-0-0-0---------||-3--3-3-3-3-3---------||----------------------|
|----------------------||----------------------||-0--0-0-0-0-0---------||-0--0-0-0-0-0---------||-7--7-7-7-7-7---------||----------------------|
|----------------------||----------------------||-0--0-0-0-0-0---------||-0--0-0-0-0-0---------||-9--9-9-9-9-9---------||----------------------|
|----------------------||----------------------||-0--0-0-0-0-0---------||-0--0-0-0-0-0---------||-3--3-3-3-3-3---------||----------------------|
|----------------------||----------------------||-0--0-0-0-0-0---------||-0--0-0-0-0-0---------||-0--0-0-0-0-0---------||----------------------|
|----------------------||----------------------||-0--0-0-0-0-0---------||-0--0-0-0-0-0---------||-2--2-2-2-2-2---------||----------------------|
|----------------------||----------------------||-0--0-0-0-0-0---------||-0--0-0-0-0-0---------||-1--1-1-1-1-1---------||----------------------|
|----------------------||----------------------||-0~---0-0-0~---0-0----||-0~---0-0-0~---0-0----||-0~---0-0-3~---3-3----||----------------------|
|----------------------||----------------------||-0~---0-0-0~----------||-0~---0-0-0~----------||-0~---0-0-3~----------||----------------------|
remember, its nothing serious, not even a real album, just a list of what we have so our next list of songs will be CLASSMATE 67-TAKE 2. just another list of songs, not an cd. just in case we get a gig, this is all we have. contact us at or myspace.com/classmate6767 or myspace.com/regfd or daddevoe@yahoo.com or at Thank you. 123 D4VEY A.D. THE 3 E's= 666 12345 6|7 ICE |7 AGE |7 456 3 D's IN DAVID DEVOE =777 6 7 6 7 CLASSSMATE 67
Please rate this tab:
x1.0