Misc Unsigned Bands – Mommygoesfishin - Lietokeep tab

here it is...

|----------------------------------------------------10h12--| |-----------------------------------------------------------| |-----77------7h9-------------------------------------------| |---99--99--99----77777774455555555--------------0----------| |-77------77------77777772233333333---5----5----------------| |-----------------555555522333333332-2--2-2--2-2------------|
|---------------------------------------------------------| |-----------------8p7---8p7-------------------------------| |---77--77--77--7----7h9---7h9--------------------77h9p7--| |-99--99--99--99--------------77h9p7--77h9p7--77h9--------| |-----------------------------------10------10------------| |---------------------------------------------------------|
|----------------------------------------------------10h12--| |-----------------------------------------------------------| |-----77------7h9-------------------------------------------| |---99--99--99----77777774455555555--------------0----------| |-77------77------77777772233333333---5----5----------------| |-----------------555555522333333332-2--2-2--2-2------------|
|---------------------------------------------------------| |-----------------8p7---8p7-------------------------------| |---77--77--77--7----7h9---7h9--------------------77h9p7--| |-99--99--99--99--------------77h9p7--77h9p7--77h9--------| |-----------------------------------10------10------------| |---------------------------------------------------------|
|----------------------------------------------------10h12--| |-----------------------------------------------------------| |-----77------7h9-------------------------------------------| |---99--99--99----77777774455555555--------------0----------| |-77------77------77777772233333333---5----5----------------| |-----------------555555522333333332-2--2-2--2-2------------|
|---------------------------------------------------------| |-----------------8p7---8p7-------------------------------| |---77--77--77--7----7h9---7h9--------------------77h9p7--| |-99--99--99--99--------------77h9p7--77h9p7--77h9--------| |-----------------------------------10------10------------| |---------------------------------------------------------|
|------------------------------------------| |------------------------------------------| |------------------------------------------| |-9999999-9999999999999--7777777-8888888---| |-xxxxxxx-10101010101010-xxxxxxx-xxxxxxx---| |-7777777-7-7-7-7-7-7-7--5555555-6666666---|
|----------------------------| |----------------------------| |------------7-5-----5-7-----| |-9---9----7-----7-5-----8---| |-x---10---x-------------x---| |-7---7----5-------------6---|
|------------------------------------------| |------------------------------------------| |------------------------------------------| |-9999999-9999999999999--7777777-8888888---| |-xxxxxxx-10101010101010-xxxxxxx-xxxxxxx---| |-7777777-7-7-7-7-7-7-7--5555555-6666666---|
|----------------------------| |----------------------------| |------------7-5-----5-7-----| |-9---9----7-----7-5-----8---| |-x---10---x-------------x---| |-7---7----5-------------6---|
then... |-------------------------------------| |-13-11-10-----13-11-10---------8-10--| |---------10-9----------10-9-10-------| x2 |-------------------------------------| |-------------------------------------| |-------------------------------------|
|----------------------------------------------------10h12--| |-----------------------------------------------------------| |-----77------7h9-------------------------------------------| |---99--99--99----77777774455555555--------------0----------| |-77------77------77777772233333333---5----5----------------| |-----------------555555522333333332-2--2-2--2-2------------|
|---------------------------------------------------------| |-----------------8p7---8p7-------------------------------| |---77--77--77--7----7h9---7h9--------------------77h9p7--| |-99--99--99--99--------------77h9p7--77h9p7--77h9--------| |-----------------------------------10------10------------| |---------------------------------------------------------|
|----------------------------------------------------10h12--| |-----------------------------------------------------------| |-----77------7h9-------------------------------------------| |---99--99--99----77777774455555555--------------0----------| |-77------77------77777772233333333---5----5----------------| |-----------------555555522333333332-2--2-2--2-2------------|
|---------------------------------------------------------| |-----------------8p7---8p7-------------------------------| |---77--77--77--7----7h9---7h9--------------------77h9p7--| |-99--99--99--99--------------77h9p7--77h9p7--77h9--------| |-----------------------------------10------10------------| |---------------------------------------------------------|
|----------------------------------------------------10h12--| |-----------------------------------------------------------| |-----77------7h9-------------------------------------------| |---99--99--99----77777774455555555--------------0----------| |-77------77------77777772233333333---5----5----------------| |-----------------555555522333333332-2--2-2--2-2------------|
|---------------------------------------------------------| |-----------------8p7---8p7-------------------------------| |---77--77--77--7----7h9---7h9--------------------77h9p7--| |-99--99--99--99--------------77h9p7--77h9p7--77h9--------| |-----------------------------------10------10------------| |---------------------------------------------------------|
|------------------------------------------| |------------------------------------------| |------------------------------------------| |-9999999-9999999999999--7777777-8888888---| |-xxxxxxx-10101010101010-xxxxxxx-xxxxxxx---| |-7777777-7-7-7-7-7-7-7--5555555-6666666---|
|----------------------------| |----------------------------| |------------7-5-----5-7-----| |-9---9----7-----7-5-----8---| |-x---10---x-------------x---| |-7---7----5-------------6---|
|------------------------------------------| |------------------------------------------| |------------------------------------------| |-9999999-9999999999999--7777777-8888888---| |-xxxxxxx-10101010101010-xxxxxxx-xxxxxxx---| |-7777777-7-7-7-7-7-7-7--5555555-6666666---|
|----------------------------| |----------------------------| |------------7-5-----5-7-----| |-9---9----7-----7-5-----8---| |-x---10---x-------------x---| |-7---7----5-------------6---|
|-------------------------------------| |-13-11-10-----13-11-10---------8-10--| |---------10-9----------10-9-10-------| |-------------------------------------| |-------------------------------------| |-------------------------------------|
|-------------------------------------| |-13-11-10-----13-11-10---------8-10--| |---------10-9----------10-9-10-------| |-------------------------------------| |-------------------------------------| |-------------------------------------|
|----------------------------------------------------10h12--| |-----------------------------------------------------------| |-----77------7h9-------------------------------------------| |---99--99--99----77777774455555555--------------0----------| |-77------77------77777772233333333---5----5----------------| |-----------------555555522333333332-2--2-2--2-2------------|
|---------------------------------------------------------| |-----------------8p7---8p7-------------------------------| |---77--77--77--7----7h9---7h9--------------------77h9p7--| |-99--99--99--99--------------77h9p7--77h9p7--77h9--------| |-----------------------------------10------10------------| |---------------------------------------------------------|
___________________________________________________________________________
Please rate this tab:
x1.0