Misc Unsigned Bands – Milk2shed - I Am Legend tab

___________________________________________________________________________
___________________________________________________________________________
masalimuot na kanta...
standard tuning...
hayzz...
Intro:
[clean]
|-----------------------------------------------------------------| |-----------------------------------------------------------------| |-----------------------------------------------------------------| |--3-3-3-0-0-0-2-2-2-0-0-0-3-3-3-0-0-0-2-2-2-2-2------------------| |---1-1-1-1-1-1-1-1-1-1-1-1-0-0-0-0-0-0-3-3-3-3-3-----------------| |-----------------------------------------------------------------|
then:[distortion] |------------------------------------------------------------------| |------------------------------------------------------------------| |---------------------------------------------------6-6-6----------| |--0000000--333222000------------0000000-000-00-0-0-0-0-0----------| |--0000000-----------111000------0000000-000-00-0-0-4-4-4----------| |--0000000-----------------------0000000-000-00-0-0----------------| ....... ....... ... .. . .
|--------------------------------------------------------||--------------------------------------------------------||--------------------------------------------------------||0-3p0-7p0-3p0-5p0-3p0-2-3-2-2-3p0-7p0-3p0-5p0-3p0-5-5-5-||0---------------------------0---------------------3-3-3-||0-------------------------------------------------------|
|--------------------------------------------------------||--------------------------------------------------------||--------------------------------------------------------||0-3p0-7p0-3p0-5p0-3p0-2-3-2-2-3p0-7p0-3p0-5p0-3p0-5-5-5-||0---------------------------0---------------------3-3-3-||0-------------------------------------------------------|
|-------------------------------------------------------------------------||-------------------------------------------------------------------------||-------------------------------------------------------------------------||-0--0-0--0-0-----------------3h4h5h6-0--0-0--0-0-----------------3h4h5h6-||-0--0-0--0-0---------3h4h5h6---------0--0-0--0-0---------3h4h5h6---------||-0--0-0--0-0-3h4h5h6-----------------0--0-0--0-0-3h4h5h6-----------------|
|---------------------------------------||---------------------------------------||---------------------------------------||-0-0--3p2p0-5p3p2p0--0---3p2p0-5p3p2p0-||-0-0-----------------0-----------------||-0-0-----------------0-----------------|
[clean] |-----------------------------------------------------------------| |-----------------------------------------------------------------| |-----------------------------------------------------------------| |--3-3-3-0-0-0-2-2-2-0-0-0-3-3-3-0-0-0-2-2-2-2-2------------------| |---1-1-1-1-1-1-1-1-1-1-1-1-0-0-0-0-0-0-3-3-3-3-3-----------------| |-----------------------------------------------------------------|
|--------------------------------------------------------||--------------------------------------------------------||--------------------------------------------------------||0-3p0-7p0-3p0-5p0-3p0-2-3-2-2-3p0-7p0-3p0-5p0-3p0-5-5-5-||0---------------------------0---------------------3-3-3-||0-------------------------------------------------------|
|--------------------------------------------------------||--------------------------------------------------------||--------------------------------------------------------||0-3p0-7p0-3p0-5p0-3p0-2-3-2-2-3p0-7p0-3p0-5p0-3p0-5-5-5-||0---------------------------0---------------------3-3-3-||0-------------------------------------------------------|
|------------------------------------------||------------------------------------------||------------------------------------------||--8---8-8-8---8-8-10---10-10-10---10-10---| x4|--8---8-8-8---8-8-10---10-10-10---10-10---||--8---8-8-8---8-8-10---10-10-10---10-10---|
|------------------------------------------||------------------------------------------||------------------------------------------||-8-8-8-8-8-8-8-8-8-8-8-8-8-8-0------0-0---||-8-8-8-8-8-8-8-8-8-8-8-8-8-8-0------0-0---||-8-8-8-8-8-8-8-8-8-8-8-8-8-8-0------0-0---|
|-------------------------------------------||-------------------------------------------||-------------------------------------------||-8-8-8-8-8-8-8-8-8-8-8-8-8-8-0------0-10---||-8-8-8-8-8-8-8-8-8-8-8-8-8-8-0------0-10---||-8-8-8-8-8-8-8-8-8-8-8-8-8-8-0------0-10---|
|-------------------------------------------------||----------------------13-------------------------||-------14-15-12-14-------15-14-12-14----12-------||-12-15-------------15----------------15----14-15-||-------------------------------------------------||-------------------------------------------------|
|-------------------------------------------------||----------------------13-------------------------||-------14-15-12-14-------15-14-12-14----12-------||-12-15-------------15----------------15----14-15-||-------------------------------------------------||-------------------------------------------------|
|---------------------------------||---------------------------------||---------------------------------||-0-0-0-0-0-0-0-0-0-0-0-0-0-0-0-0-||-0-0-0-0-0-0-0-0-0-0-0-0-0-0-0-0-||-0-0-0-0-0-0-0-0-0-0-0-0-0-0-0-0-|
|---------------------------------||---------------------------------||---------------------------------||-0-0-0-0-0-0-0-0-0-0-0-0-0-0-0-0-||-0-0-0-0-0-0-0-0-0-0-0-0-0-0-0-0-||-0-0-0-0-0-0-0-0-0-0-0-0-0-0-0-0-|
____________________________________________________________________________
Please rate this tab:
x1.0