Misc Unsigned Bands - Virt - Blood Of Ganon tab

-------------------------------------------------------------------------------
			     Blood of Ganon - Virt
-------------------------------------------------------------------------------
Tabbed by: Edward Cosio
Email: Brain_damage_67@hotmail.com





This isn't actually the whole song, rather from where the Zelda I theme kicks in. (2:24)
From there I have perfectly. :p
Including the entire Castle Theme part.
Oh, minus the Zelda II Battle Theme at the end. [[still working on that]] 

      (2:24)
Zelda I Theme:

e|--------------------------------|--------------------------------------|B|-/7-----------------7---5p3-5---|----/7-----------------7--6p4-6-------|G|--------6-----6--6--------------|-----------7-----7p6h7--------------6-|D|--------------------------------|--------------------------------------|A|--------------------------------|--------------------------------------|E|--------------------------------|--------------------------------------|
|---------------4-6-7-9-----4-6-7-9------|------------4-6-7-9-----4-6-7-9-| |-/7-------7--7---------7--7--------7---7|7------7--7---------7--7--------| |-----6-------------------------------6--|---6----------------------------| |----------------------------------------|--------------------------------| |----------------------------------------|--------------------------------| |----------------------------------------|--------------------------------|
(2:50) Castle Theme: {transition}
|---------------------------------------| |-/7------------7--8--10--6-10-7--------| |-------6---------------------------6---| |---------------------------------------| |---------------------------------------| |---------------------------------------|
|------------------------------5----2---| |----5------3--2--0----2--5-------------| |-6-------------------------------------| |---------------------------------------| |---------------------------------------| |---------------------------------------|
Rhythym after ^^^
|---------------------------------------| |---------------------------------------| |---------------------------------------| |-4-4-4--2--4----5---7-4~---------------| |-4-4-4--2--4----5---7-4~---------------| |-2-2-2--0--2----3---5-2~---------------|
(3:11) Castle theme part I: [Rhythym] |---|---------------------------------------------------------| X4 |---|---------------------------------------------------------| |---|---------------------------------------------------------| |-4-|-4-----4---2-----2---4-----4-----4-4-4---4---5---3-------| |-4-|-4-----4---2-----2---4-----4-----4-4-4---4---5---3-------| |-2-|-2-----2---0-----0---2-----2-----2-2-2---2---3---1-------|
(3:29) Castle theme part I: [Lead] |---------------------------------------| X2 |-/7------------7--8--10--6h10-7--------| |-------6-----6---------------------6---| |---------------------------------------| |---------------------------------------| |---------------------------------------|
|-/7------------7--12--10---8-6-7-----------------------------| |-------7-----7---------------------7--------7h9h10-9h10h12---| |-------------------------------------------------------------| |-------------------------------------------------------------| |-------------------------------------------------------------| |-------------------------------------------------------------|
|---------------------------------------| |-/7------------7--8--10--6h10-7--------| |-------6-----6---------------------6---| |---------------------------------------| |---------------------------------------| |---------------------------------------|
(3:43) Castle theme part II: |---------------------5-----------------| X2 |--5-----3p2p0--2--5-----5/7------------| |---------------------------------------| |---------------------------------------| |---------------------------------------| |---------------------------------------|
|---------------------2--5--|---3p2p0--2--3--5--7-----5p4----4--5--7--9---| |--5-----3p2p0--2--5--------------------------------------7---------------| |-------------------------------------------------------------------------| |-------------------------------------------------------------------------| |-------------------------------------------------------------------------| |-------------------------------------------------------------------------|
(4:09) Castle Theme part III quick up and down picking[first time only](°signals where) {transition} |---------------9°-8°-----------------------------| X2 |------------------| |--7°----9°-10°---------9°----12----10--6--10--7--| |------------------| |-------------------------------------------------| |------------------| |-------------------------------------------------| |-4--6--7--6--7--9-| |-------------------------------------------------| |-4--6--7--6--7--9-| |-------------------------------------------------| |-2--4--5--4--5--7-|
(4:23) Castle Theme part IV {transition} |-10----10-10-10--7-----10--9--|-7----7-7-7--4-----7--5--| |--5---7---9--| |--------------------7---------|----------------3--------| |-------------| |------------------------------|-------------------------| |-------------| |------------------------------|-------------------------| |-------------| |------------------------------|-------------------------| |-------------| |------------------------------|-------------------------| |-------------|
|-10----10-10-10--7-----10--9----9-9-9--5-----9--7----7-7-7--4-----7--5--| |--------------------7---------------------5--------------------3--------| |------------------------------------------------------------------------| |------------------------------------------------------------------------| |------------------------------------------------------------------------| |------------------------------------------------------------------------|
and this is the first chords of the Zelda II Battle Theme:
|--------------------------------------------------------------| |--------------------------------------------------------------| |--------------------------------------------------------------| |-7----7-7----7-7----7----7-7----7-7----7----7-7----7-7----7---| |-7----7-7----7-7----7----7-7----7-7----7----7-7----7-7----7---| |-5----5-5----5-5----5----5-5----5-5----5----5-5----5-5----5---|
| / slide up | \ slide down | h hammer-on | p pull-off | ~ vibrato | + harmonic | x Mute note ===============================================================================
Tap to rate this tab
 
# A B C D E F G H I J K L M N O P Q R S T U V W X Y Z