Misc Unsigned Bands – Espartaco - Torturame tab

any question mail me : facum.a_91@hotmail.com

intro

---------------------------------|---------------------------------|---------------------------------|-6-6-6-6-4-4-4-4-8-8-8-8-6-6-6-6-|-6-6-6-6-4-4-4-4-8-8-8-8-6-6-6-6-| X2-4-4-4-4-2-2-2-2-6-6-6-6-4-4-4-4-|
pm-------------------------------- VERSE----1
------------------------------------|------------------------------------|------------------------------------|-6-6-6-6-4-4-4-4-8-8-8-8-6-6-6-6----|-6-6-6-6-4-4-4-4-8-8-8-8-6-6-6-6----| X2-4-4-4-4-2-2-2-2-6-6-6-6-4-4-4-4----|pm----------------------------------|
------------------------------------|------------------------------------|------------------------------------|-6-6-6-6-4-4-4-4-8-8-8-8-11-11-11---|-6-6-6-6-4-4-4-4-8-8-8-8-11-11-11---| X2-4-4-4-4-2-2-2-2-6-6-6-6-9-9-9-9----|
---------------------------------|---------------------------------|---------------------------------|-6-6-6-6-4-4-4-4-8-8-8-8-6-6-6-6-|-6-6-6-6-4-4-4-4-8-8-8-8-6-6-6-6-| X2-4-4-4-4-2-2-2-2-6-6-6-6-4-4-4-4-|
CHORUS
---------------------------------|---------------------------------|-6-6-6-6-8-8-8-8-----------------|-6-6-6-6-8-8-8-8-8-8-8-8-8-8-8-8-| X2-4-4-4-4-6-6-6-6-8-8-8-8-8-8-8-8-|-----------------6-6-6-6-6-6-6-6-|
---------------------------------|---------------------------------|-6-6-6-6-8-8-8-8-----------------|-6-6-6-6-8-8-8-8-4-4-4-4-4-4-4-4-|-4-4-4-4-6-6-6-6-4-4-4-4-4-4-4-4-|-----------------2-2-2-2-2-2-2-2-|
---------------------------------|---------------------------------|-6-6-6-6-8-8-8-8-----------------|-6-6-6-6-8-8-8-8-4~--44--44--44--|-4-4-4-4-6-6-6-6-4~--44--44--44--|-----------------2~--22--22--22--|
VERSE----2
------------------------------------|------------------------------------|------------------------------------|-6-6-6-6-4-4-4-4-8-8-8-8-6-6-6-6----|-6-6-6-6-4-4-4-4-8-8-8-8-6-6-6-6----| X2-4-4-4-4-2-2-2-2-6-6-6-6-4-4-4-4----|pm----------------------------------|
------------------------------------|------------------------------------|------------------------------------|-6-6-6-6-4-4-4-4-8-8-8-8-11-11-11---|-6-6-6-6-4-4-4-4-8-8-8-8-11-11-11---| X2-4-4-4-4-2-2-2-2-6-6-6-6-9-9-9-9----|
---------------------------------|---------------------------------|---------------------------------|-6-6-6-6-4-4-4-4-8-8-8-8-6-6-6-6-|-6-6-6-6-4-4-4-4-8-8-8-8-6-6-6-6-| X2-4-4-4-4-2-2-2-2-6-6-6-6-4-4-4-4-|
CHORUS 2
---------------------------------|---------------------------------|-6-6-6-6-8-8-8-8-----------------|-6-6-6-6-8-8-8-8-8-8-8-8-8-8-8-8-| X2-4-4-4-4-6-6-6-6-8-8-8-8-8-8-8-8-|-----------------6-6-6-6-6-6-6-6-|
---------------------------------|---------------------------------|-6-6-6-6-8-8-8-8-----------------|-6-6-6-6-8-8-8-8-4-4-4-4-4-4-4-4-|-4-4-4-4-6-6-6-6-4-4-4-4-4-4-4-4-|-----------------2-2-2-2-2-2-2-2-|
---------------------------------|---------------------------------|-6-6-6-6-8-8-8-8-----------------|-6-6-6-6-8-8-8-8-4~--44--44--44--|-4-4-4-4-6-6-6-6-4~--44--44--44--|-----------------2~--22--22--22--|
BRIDGE
----------------------------------|----------------------------------|---------6-6-6-6--------/-8-8-8-8-|-8-8-8-8-6-6-6-6-4-4-4-4/-8-8-8-8-| X2-8-8-8-8-4-4-4-4-4-4-4-4/-6-6-6-6-|-6-6-6-6---------2-2-2-2/---------|
-------------------------------------------------------------|-------------------------------------------------------------|---------6-6-6-6-------------------------6-6-6-6-------------|-8-8-8-8-6-6-6-6-4-4-4-4-4-4-4-4-8-8-8-8-6-6-6-6-4-4-4-4-4-4-|-8-8-8-8-4-4-4-4-4-4-4-4-4-4-4-4-8-8-8-8-4-4-4-4-4-4-4-4-4-4-|-6-6-6-6---------2-2-2-2-2-2-2-2-6-6-6-6---------2-2-2-2-2-2-|
end chorus
---------------------------------|---------------------------------|-6-6-6-6-8-8-8-8-----------------|-6-6-6-6-8-8-8-8-8-8-8-8-8-8-8-8-| X2-4-4-4-4-6-6-6-6-8-8-8-8-8-8-8-8-|-----------------6-6-6-6-6-6-6-6-|
---------------------------------|---------------------------------|-6-6-6-6-8-8-8-8-----------------|-6-6-6-6-8-8-8-8-4-4-4-4-4-4-4-4-|-4-4-4-4-6-6-6-6-4-4-4-4-4-4-4-4-|-----------------2-2-2-2-2-2-2-2-|
-----------------------------------|-----------------------------------|-6-6-6-6-8-8-8-8-------------------|-6-6-6-6-8-8-8-8-4~--44--44--44/66-|-4-4-4-4-6-6-6-6-4~--44--44--44/66-|-----------------2~--22--22--22/44-|
Please rate this tab:
x1.0