Misc Unsigned Bands – Classmate 67 - 1st Symphony tab

|---------------------------|---------------------------||------2---2---2------------|------2---2---2------------||----0---0---0---0----------|----0---0---0---0----------||--0------------------------|--0------------------------||---------------------------|---------------------------||---------------------------|---------------------------|
|---------------------------|---------------------------||------0---0---0------------|------0---0---0------------||----2---2---2---2----------|----2---2---2---2----------||--0------------------------|--0------------------------||---------------------------|---------------------------||---------------------------|---------------------------|
|---------------------------|---------------------------||------2---2---2------------|------2---2---2------------||----0---0---0---0----------|----0---0---0---0----------||--0------------------------|--0------------------------||---------------------------|---------------------------||---------------------------|---------------------------|
|---------------------------|---------------------------||------0---0---0------------|------0---0---0------------||----2---2---2---2----------|----2---2---2---2----------||--0------------------------|--0------------------------||---------------------------|---------------------------||---------------------------|---------------------------|
|---------------------------|---------------------------||------0---------0----------|------0---------0----------||----0---0-----0---0--------|----0---0-----0---0--------||--1---------1--------------|--0---------3--------------||---------------------------|---------------------------||---------------------------|---------------------------|
|---------------------------|---------------------------||------2---2---2------------|------2---2---2------------||----0---0---0---0----------|----0---0---0---0----------||--0------------------------|--0------------------------||---------------------------|---------------------------||---------------------------|---------------------------|
|---------------------------|---------------------------||------2---2---2------------|------2---2---2------------||----0---0---0---0----------|----0---0---0---0----------||--0------------------------|--0------------------------||---------------------------|---------------------------||---------------------------|---------------------------|
|---------------------------|---------------------------||------0---0---0------------|------0---0---0------------||----2---2---2---2----------|----2---2---2---2----------||--0------------------------|--0------------------------||---------------------------|---------------------------||---------------------------|---------------------------|
|---------------------------|---------------------------||------2---2---2------------|------2---2---2------------||----0---0---0---0----------|----0---0---0---0----------||--0------------------------|--0------------------------||---------------------------|---------------------------||---------------------------|---------------------------|
|---------------------------|---------------------------||------0---0---0------------|------0---0---0------------||----2---2---2---2----------|----2---2---2---2----------||--0------------------------|--0------------------------||---------------------------|---------------------------||---------------------------|---------------------------|
|---------------------------|---------------------------||------0---------0----------|------0---------0----------||----0---0-----0---0--------|----0---0-----0---0--------||--1---------1--------------|--0---------3--------------||---------------------------|---------------------------||---------------------------|---------------------------|
|---------------------------|---------------------------||------0-----------0--------|------0--------------------||----2---0-------2---0------|----2---0-------2----------||--3-----------3------------|--3-----------0------------||---------------------------|---------------------------||---------------------------|---------------------------|
|---------------------------|---------------------------||------0-----------0--------|------0--------------------||----2---0-------2---0------|----2---0-------2----------||--3-----------3------------|--3-----------0------------||---------------------------|---------------------------||---------------------------|---------------------------|
|---------------------------|---------------------------||------0-----------0--------|------0--------------------||----2---0-------2---0------|----2---0-------2----------||--3-----------3------------|--3-----------0------------||---------------------------|---------------------------||---------------------------|---------------------------|
|---------------------------|---------------------------||------0-----------0--------|------0--------------------||----2---0-------2---0------|----2---0-------2----------||--3-----------3------------|--3-----------0------------||---------------------------|---------------------------||---------------------------|---------------------------|
|---------------------------|---------------------------||------0-----0-----0-----0--|------0-----0-----0-----0--||----0-----2-----2-----0----|----0-----2-----2-----0----||--2-----0-----3-----2------|--2-----0-----3-----2------||---------------------------|---------------------------||---------------------------|---------------------------|
|---------------------------|---------------------------||------0-----0-----0-----0--|------0-----0-----0-----0--||----0-----2-----2-----0----|----0-----2-----2-----0----||--2-----0-----3-----2------|--2-----0-----3-----2------||---------------------------|---------------------------||---------------------------|---------------------------|
|---------------------------|---------------------------||------0-----0--------------|------0-----0--------------||----0-----0-----0----------|----0-----0-----0----------||--2-----2-----2------------|--1-----1-----1------------||---------------------------|---------------------------||---------------------------|---------------------------|
|---------------------------|---------------------------||------0-----0--------------|------0-----0--------------||----0-----0-----0----------|----0-----0-----0----------||--0-----0-----0------------|--3-----3-----3------------||---------------------------|---------------------------||---------------------------|---------------------------|
|---------------------------|---------------------------||------0-----0--------------|------0-----0--------------||----0-----0-----0----------|----0-----0-----0----------||--2-----2-----2------------|--1-----1-----1------------||---------------------------|---------------------------||---------------------------|---------------------------|
|---------------------------|---------------------------||------0-----0--------------|------0--------------------||----0-----0-----0----------|----0-----0----------------||--0-----0-----0------------|--3-----3-----0-3-0--------||---------------------------|---------------------------||---------------------------|---------------------------|
|---------------------------|---------------------------||------0-----0--------------|------0-----0--------------||----0-----0-----0----------|----0-----0----------------||--7-----7-----7------------|--9-----9-----9------------||---------------------------|---------------------------||---------------------------|---------------------------|
|---------------------------|---------------------------||------0-----0--------------|------0--------------------||----0-----0-----0----------|----0-----0----------------||--3-----3-----3------------|--0-----0-----0-3-0--------||---------------------------|---------------------------||---------------------------|---------------------------|
|---------------------------|---------------------------||------0-----0--------------|------0-----0--------------||----0-----0-----0----------|----0-----0-----0----------||--2-----2-----2------------|--1-----1-----1------------||---------------------------|---------------------------||---------------------------|---------------------------|
|---------------------------|---------------------------||---------------0~~---------|---0~~---0-----0-----------||-------------0-------------|-0-----0-----0-----0-------||--0~~---0--3-----0~~---0--3|-----3-----2-----0---------||---------------------------|---------------------------||---------------------------|---------------------------|
|---------------------------|---------------------------||------0-----0--------------|------0-----0--------------||----0-----0-----0----------|----0-----0-----0----------||--3-----2-----0------------|--2-----1-----0------------||---------------------------|---------------------------||---------------------------|---------------------------|
|---------------------------|---------------------------||------0-----0--------------|------0-----0--------------||----0-----0-----0----------|----0-----0-----0----------||--2-----1-----0------------|--3-----2-----0------------||---------------------------|---------------------------||---------------------------|---------------------------|
|---------------------------|---------------------------||------0-----0--------------|------0-----0--------------||----0-----0-----0----------|----0-----0-----0----------||--3-----2-----0------------|--2-----1-----0------------||---------------------------|---------------------------||---------------------------|---------------------------|
|---------------------------|---------------------------||------0-----0--------------|------0-----0--------------||----0-----0-----0----------|----0-----0-----0----------||--2-----1-----0------------|--2-----1-----0------------||---------------------------|---------------------------||---------------------------|---------------------------|
|---------------------------|---------------------------||------0-----0-------0~~----|---------------------------||----0-----0-----0---0~~----|---------------------------||--2-----1-----0-----2~~----|---------------------------||---------------------------|---------------------------||---------------------------|---------------------------|
Please rate this tab:
x1.0