Misc Unsigned Bands - Black Hearts - Permanent Destruction tab

Permanent Destruction 2nd Guitar

Black Hearts

Eternity Favors

I know this is right because I wrote it

Riley Galloway

Intro

|--------||--------||--------| x6|--------||--------||--------|
|--------||--------||--------||--------||2~~~2~~~||0~~~0~~~|
|--------||3~~~----||2~~~----||0~~~----||--------||--------|
|-------------||-------------||----2---2-2-2||----0---0-0-0||5~~---5------||3~~---3------|
|--------||--------||--------| |--------||--------||--------|
|-------------||-------------||-------------||4~~~--4------||2~~~5-2-5-5-5||----3---3-3-3|
|--------||--------||--------| |--------||--------||--------|
|-------------||-------------||-------------||2~~~--2------||0~~~2-0-2-2-2||----0---0-0-0|
Pre-verse |--------|
|3~~~3~~~||2~~~2~~~||--------||--------||--------|
|--------|
|1~~~1~~~||0~~~0~~~||--------||--------||--------|
|--------||--------|
|4~~~4~~~||3~~~3~~~||--------||--------|
|--------||--------|
|4~~~4~~~||2~~~2~~~||--------||--------|
|0~~~0~~~||0~~~0~~~||--------||--------||--------||--------|
|--------|
|3~~~3~~~||2~~~2~~~||--------||--------||--------|
|--------|
|0~~~0~~~||0~~~0~~~||--------||--------||--------|
|--------||--------||--------| |--------||--------||--------|
|--------|
|0~~~0~~~||0~~~0~~~||--------||--------||--------|
|---------------||---------------||---------------||--2-2-2-2-2-2-2||--2-2-2-2-2-2-2||--0-0-0-0-0-0-0|
|---------------||---------------||---------------||--2-2-2-2-2-2-2||--2-2-2-2-2-2-2||--0-0-0-0-0-0-0|
| -------|| -------||.-------||.5~~~~~4|| 5~~~~~4|| 3~~~~~2|
|--------|
|4~~~~~~~||4~~~~~~~||2~~~~~~~||--------||--------|
|--------||6~~~~~~-||6~~~~~~-|
|4~~~~~~6||-------6||-------4|
|--------|
|6~~~~~~~||6~~~~~~~||4~~~~~~~||--------||--------|
|--------||--------||--------||2~~~~~~~||2~~~~~~~||0~~~~~~~|
|--------||--------||--------| |--------||--------||--------||-------||-------||7-7-7-7| |7-7-7-7||5-5-5-5||-------|
|-------- ||-------- |
|6~~~~~~~.| |6~~~~~~~.||4~~~~~~~ ||-------- |
|--------||--------||--------| |--------||--------||--------|
Tap to rate this tab
 
# A B C D E F G H I J K L M N O P Q R S T U V W X Y Z