Misc Unsigned Bands – Emosideproject - First Day Of School tab

Title:1st day of school
Artist: emoside project


intro
G1: C-G-A - power chords

G2----------------------------------------------------|-------5-5-3-3-----------5-5-3-3--------------------|---5-5-----------5-5--5-5----------5-5--------------|----------------------------------------------------|----------------------------------------------------|----------------------------------------------------|
----------------------------------------------------|-------5-5-3-3--------6-6-5-5------3-3--------------|-----------------5-5------------5-5-----------------|---5-5----------------------------------------------|----------------------------------------------------|----------------------------------------------------|
----------------------------------------------------|-------5-5-3-3-----------5-5-3-3--------------------|-----------------5-5---------------5-5--------------|---7-7----------------7-7---------------------------|----------------------------------------------------|----------------------------------------------------|
----------------------------------------------------|-------5-5-3-3--------6-6-5-5-----3-3---------------|-----------------5-5------------5-5-----------------|---5-5----------------------------------------------|----------------------------------------------------|----------------------------------------------------|
verse: Cpause-Gpause-Apause - powerchords - G1: C-G-A - power chords
G2----------------------------------------------------|-------5-5-3-3-----------5-5-3-3--------------------|---5-5-----------5-5--5-5----------5-5--------------|----------------------------------------------------|----------------------------------------------------|----------------------------------------------------|
----------------------------------------------------|-------5-5-3-3--------6-6-5-5------3-3--------------|-----------------5-5------------5-5-----------------|---5-5----------------------------------------------|----------------------------------------------------|----------------------------------------------------|
----------------------------------------------------|-------5-5-3-3-----------5-5-3-3--------------------|-----------------5-5---------------5-5--------------|---7-7----------------7-7---------------------------|----------------------------------------------------|----------------------------------------------------|
----------------------------------------------------|-------5-5-3-3--------6-6-5-5-----3-3---------------|-----------------5-5------------5-5-----------------|---5-5----------------------------------------------|----------------------------------------------------|----------------------------------------------------|
verse: Cpause-Gpause-Apause - powerchords
Please rate this tab:
x1.0