Misc Unsigned Bands - Red Vain - Open Up tab

intro:------------------------------------------------|------------------------------------------------|------------------------------------------------|------------------------------------1-----------|------------------------------------1-----------|-0--0-0-0--0---0--0---0---0--0---0--1-----------|P.M.------------------------------
------------------------------------------------|------------------------------------------------|------------------------------------------------|--1--1--0--0-0-0--0-0-0---1--1---000-0-0---0--0-|--1--1--0--0-0-0--0-0-0---1--1---000-0-0---0--0-|--1--1--0--0-0-0--0-0-0---1--1---000-0-0---0--0-| P.M.----------- P.M.----------
prechorus:
-------------------------------------------------|-------------------------------------------------|-------------------------------------------------|-------------------------------------------------|-------------------------------------------------|--0-0---0--0--0-0-0-0---0-0---0----0-0--0-0--0-0-| P.M.------------------------------------------
chorus:
-------------------------------------------------|-------------------------------------------------|-------------------------------------------------|--3----------2---------2--2--2-2222222222--------|--3----------2---------2--2--2-2222222222--------|--3----------2-----------------------------------|
-------------------------------------------------|-------------------------------------------------|-------------------------------------------------|--3----------2---------2--2--2-22222222222-------|--3----------2---------2--2--2-22222222222-------|--3----------2-----------------------------------|
Verse 1:
--------------------------------------------------|--------------------------------------------------|--------------------------------------------------|----------------------1--------1--1---------------|----------------------1--------1--1---------------|0-0-0-0-0-0-00-000-0--1--------1--1---------------|P.M.----------------
--------------------------------------------------|--------------------------------------------------|--------------------------------------------------|----------------------1--------1--1---------------|----------------------1--------1--1---------------|0-0-0-0-0-0-00-000-0--1--------1--1---------------|P.M.----------------
--------------------------------------------------|--------------------------------------------------|--------------------------------------------------|----------------------1--------1--1---------------|----------------------1--------1--1---------------|0-0-0-0-0-0-00-000-0--1--------1--1---------------|
Prechorus: Chorus: Verse 2:
--------------------------------------------------|--------------------------------------------------|--------------------------------------------------|----------------------1--------1--1---------------|----------------------1--------1--1---------------|0-0-0-0-0-0-00-000-0--1--------1--1---------------|P.M.----------------
--------------------------------------------------|--------------------------------------------------|--------------------------------------------------|----------------------1--------1--1---------------|----------------------1--------1--1---------------|0-0-0-0-0-0-00-000-0--1--------1--1---------------|P.M.----------------
--------------------------------------------------|--------------------------------------------------|--------------------------------------------------|----------------------1--------1--1---------------|----------------------1--------1--1---------------|0-0-0-0-0-0-00-000-0--1--------1--1---------------|P.M.----------------
chorus: Bridge:
---------------------------------------------------|---------------------------------------------------|---------------------------------------------------|----------1---1----1---1-----11111111111111111111--|----------1---1----1---1-----11111111111111111111--|-0-0-0-0--1---1----1---1-----11111111111111111111--|P.M.----
Solo A:
---------------------------------------------------|---------------------------------------------------|---------------------------------------------------|---555---333-66-666--555---333-66-666--555--55555--|---555---333-66-666--555---333-66-666--555--55555--|---555---333-66-666--555---333-66-666--555--55555--|
Solo B:
----------------------------------------------------|----------------------------------------------------|----------------------------------------------------|----------------------------------------------------|----------------------------------------------------|-20-19-18-17-16-15-14-13-12-11-10-9-8-7-6-5-4-3-2-1-|
-------------------------------------------------------------------------------------------------------------------------------------------------------------20--18-17--19--16-13--14-15--12-11-10--8--9--3--2-----20--9--6-19---7-13--1---6--12-11-10--8--9--3--2------------------------------------------------------
outro:
----------------------------------------------------|----------------------------------------------------|----------------------------------------------------|------------------1---------------------------------|------------------1---------------------------------|------------------1---------------------------------|
Tap to rate this tab
 
# A B C D E F G H I J K L M N O P Q R S T U V W X Y Z