Misc Unsigned Bands - Red Vain - Chika Song tab

Intro:

--0------0------0------0--------0------------------|--0------0------0------0--------0------------------|--3------7------2------3--------3------------------|---------------------------------------------------|---------------------------------------------------|---------------------------------------------------|
Verse 1:
--00000----00000----00000----00000---00000---------|--00000----00000----00000----00000---00000---------|--33333----77777----22222----33333---33333---------|---------------------------------------------------|---------------------------------------------------|---------------------------------------------------|
--00000----00000----00000----00000---00000---------|--00000----00000----00000----00000---00000---------|--33333----77777----22222----33333---33333---------|---------------------------------------------------|---------------------------------------------------|---------------------------------------------------|
Chorus:
---12-12-12---12-12--5--5---3----12-12-12----------|---12-12-12---12-12--5--5---3----12-12-12----------|---12-12-12---12-12--5--5---3----12-12-12----------|---------------------------------------------------|---------------------------------------------------|---------------------------------------------------|
---12-12-12---12-12--5--5---3----12-12-12----------|---12-12-12---12-12--5--5---3----12-12-12----------|---12-12-12---12-12--5--5---3----12-12-12----------|---------------------------------------------------|---------------------------------------------------|---------------------------------------------------|
verse 2:
--00000----00000----00000----00000---00000---------|--00000----00000----00000----00000---00000---------|--33333----77777----22222----33333---33333---------|---------------------------------------------------|---------------------------------------------------|---------------------------------------------------|
--00000----00000----00000----00000---00000---------|--00000----00000----00000----00000---00000---------|--33333----77777----22222----33333---33333---------|---------------------------------------------------|---------------------------------------------------|---------------------------------------------------|
Chorus: Verse 3:
--00000----00000----00000----00000---00000---------|--00000----00000----00000----00000---00000---------|--33333----77777----22222----33333---33333---------|---------------------------------------------------|---------------------------------------------------|---------------------------------------------------|
--00000----00000----00000----00000---00000---------|--00000----00000----00000----00000---00000---------|--33333----77777----22222----33333---33333---------|---------------------------------------------------|---------------------------------------------------|---------------------------------------------------|
outro:
--0------0------0------0--------0------------------|--0------0------0------0--------0------------------|--3------7------2------3--------3------------------|---------------------------------------------------|---------------------------------------------------|---------------------------------------------------|
Tap to rate this tab
 
# A B C D E F G H I J K L M N O P Q R S T U V W X Y Z